Song name
# A B C D E F G H I J K L M N O P Q R S T U V W X Y Z

Soulfly - Downstory tab

Tuning: Dropped D

e|-------|
B|-------|
G|-------|
D|-------|
A|--12\--|
D|--12\--|

VERSE:

1st part
|-----------|
|-----------|
|-----------|
|--0-4-3-2--| x16
|--0-4-3-2--|
|--0-4-3-2--|

2nd part
|----------|                        |-------|
|----------|                        |-------|
|----------|                        |-------|
|----------| Play 16 times and then |-------|
|----------|                        |-------|
|--1-0-00--|                        |--12\--|

CHOURS:

|------------|
|------------|
|------------|
|--0--4-3-2--|
|--0--4-3-2--|
|--0--4-3-2--|

After Max screams "Downstroy!!!" comes this about six times:

|-------------------------------------------------------------------|
|-------------------------------------------------------------------|
|-------------------------------------------------------------------|
|--------------------------------------------------0-4-3-2-0-2-3-4--|
|--------------------------------------------------0-4-3-2-0-2-3-4--|
|--000-000-000-000-000-000-000-000-000-000-000-000-0-4-3-2-0-2-3-4--|

OUTRO:

|-----------------|
|-----------------|
|-----------------|
|--0-4-3-2-0-2-3--|
|--0-4-3-2-0-2-3--|
|--0-4-3-2-0-2-3--|

ENJOY!!!

Tap to rate this tab
# A B C D E F G H I J K L M N O P Q R S T U V W X Y Z