Song name
# A B C D E F G H I J K L M N O P Q R S T U V W X Y Z

Soulfly - Warmageddon tab

-------------------------------------------------------------------------------
                             Warmageddon - Soulfly
-------------------------------------------------------------------------------
Tabbed by: Martinoob
E-mail: Martin1990991@gmx.de

Tuning: DGCFAD


0:00 - 0:19

Drumsolo


0:20 - 0:46

begins with a slide

both guitars
D|-------------------|
A|-------------------|
F|-------------------|
C|--3-----------1----|
G|--3-----------1----|
D|-(1)----0----(0)---|


guitar 1
D|------------------------------------------------------------|
A|------------------------------------------------------------|
F|------------------------------------------------------------|
C|------------------------------------------------------------|   x3
G|-----------7-\-6-----------8*-------------------------------|
D|---7---8-----------7---6-----------0---0---0------0------0--|


guitar 2
D|------------------------------------------------------------|
A|------------------------------------------------------------|
F|------------------------------------------------------------|
C|-----------9-\-8-----------7*-------------------------------|   x3
G|------------------------------------------------------------|
D|---7---8-----------7---6-----------0---0---0------0------0--|

*lightly pinch the notes



guitar 1
D|------------------------------------------------------------|
A|------------------------------------------------------------|
F|------------------------------------------------------------|
C|----------------------------3-------------------1-----------|
G|-----------7-\-6------------3-------------------1-----------|
D|---7---8-----------7---6---(1)-----------0-----(0)----------|


guitar 2
D|------------------------------------------------------------|
A|------------------------------------------------------------|
F|------------------------------------------------------------|
C|-----------9-\-8------------3-------------------1-----------|
G|----------------------------3-------------------1-----------|
D|---7---8-----------7---6---(1)-----------0-----(0)----------|



0:19 - 0:46 (Live version)

both guitars
D|------------------------------------------------------------|
A|------------------------------------------------------------|
F|------------------------------------------------------------|
C|-----------9---8------------10------------------8-----------|
G|-----------7-\-6------------8-------------------6-----------|
D|---7---8-----------7---6-----------------0------------------|



0:47 - 1:07

bass solo



1:07 - 1:37

exact the same like the beginnig

at the end again:

both guitars
D|-------------------|
A|-------------------|
F|-------------------|
C|--3-----------1----|
G|--3-----------1----|
D|-(1)----0----(0)---|



1:37 - 1:57

both guitars
D|-----------|
A|-----------|
F|-----------|
C|--2~~~~~---|  x2
G|--2~~~~~---|
D|--0~~~~~---|



1:57 - 2:09

begins with pick slide

then:

both guitars
D|--------------------------------------------------|
A|--------------------------------------------------|
F|--------------------------------------------------|
C|----------10--9--------6--7--6--------------------|
G|--------------------------------------------------|
D|-0--0--0---------0--0-----------0--0--0--0--0000--|
               p.h.



2:09 - 2:20

guitar 1
D|--11---------11---------11---------11---------12---------|
A|------10---------10---------10---------10---------10-----|
F|----------8----------8----------8----------8----------8--|
C|---------------------------------------------------------|
G|---------------------------------------------------------|
D|---------------------------------------------------------|

D|--11---------11---------11---------11----------9---------|
A|------10---------10---------10---------10---------10-----|
F|----------8----------8----------8----------8----------8--|
C|---------------------------------------------------------|
G|---------------------------------------------------------|
D|---------------------------------------------------------|

D|--11---------11---------11---------11---------12---------|
A|------10---------10---------10---------10---------10-----|
F|----------8----------8----------8----------8----------8--|
C|---------------------------------------------------------|
G|---------------------------------------------------------|
D|---------------------------------------------------------|

D|---4-7p6p4-----10p9p7-----13p12p10------16p15p13------22b-|
A|-6---------6----------9------------12------------15---21b-|
F|----------------------------------------------------------|
C|----------------------------------------------------------|
G|----------------------------------------------------------|
D|----------------------------------------------------------|


guitar 2
D|--------------------------------------------|
A|--------------------------------------------|
F|--------------------------------------------|
C|---1----------1----------1---------2--------|  x4
G|---1---2--2---1---2--2---1---2--2--2--2--2--|
D|--(0)--------(0)--------(0)--------0--------|



2:20 - 2:30

both guitars
D|-----------------------------------------------|
A|-----------------------------------------------|
F|-----------------------------------------------|
C|---1----------1----------1---------------------|
G|---1----------1----------1---------------------|
D|--(0)--0--0--(0)--0--0--(0)--0--0--0--0--0--0--|




2:30 - 3:01

repeat the parts above




3:01 - 3:09

guitar 1
D|---------------------------|
A|---------------------------|
F|---------------------------|
C|---------------------------|  x4
G|-------2-tr---1-tr---4-tr--|
D|--3-tr---------------------|

guitar 2
D|-----|
A|-----|
F|-----|
C|--5--|  x4
G|--5--|
D|--3--|




3:09 - 3:24

guitar 1 - continues with the riff


solo guitar

I hope I can figure it out but it takes time
be patient ;)




3:24 - 3:39

both guitars
C|-----------------------------------------------------------------------------------|
G|-----------------------------------------------------------------------------------|
D|-----------------------------------------------------------------------------------|
C|-----------------------------------------------------------------------------------| 
x4 (guitar 2 x2)
G|-----------------------------------------------------------------------------------|
D|--3-2-222222222222-3-2-3-2-222222222222-3-2-3-2-222222222222-3-2-1111111111111111--|



then guitar 2 make some harmonic

C|-----------------------------------------------------------------------------------|
G|-----------------------------------------------------------------------------------|
D|-----------------------------------------------------------------------------------|
C|--9-8-888888888888-9-8-9-8-888888888888-9-8-9-8-888888888888-9-8-7777777777777777--| x2
G|-----------------------------------------------------------------------------------|
D|-----------------------------------------------------------------------------------|



3:39 - 3:54


solo section again

guitar 1 is doing the same riff again



3:54 - 4:24

first both guitars
C|--------------------------------------------------------------------------|
G|--------------------------------------------------------------------------|
D|--------------------------------------------------------------------------|
C|--------------------------------------------------------------------------|
G|--------------------------------------------------------------------------|
D|--3-2--2-2-2-2--3-2-3-2--2-2-2-2--3-2-3-2--2-2-2-2--3-2--1-1-1-1-1-1-1-1--|



then guitar 2
C|--------------------------------------------------------------------------|
G|--------------------------------------------------------------------------|
D|--------------------------------------------------------------------------|
C|--9-8--8-8-8-8--9-8-9-8--8-8-8-8--9-8-9-8--8-8-8-8--9-8--7-7-7-7-7-7-7-7--|
G|--------------------------------------------------------------------------|
D|--------------------------------------------------------------------------|




4:45 - 4:56

guitar 1
D|--------------------------------------------------|
A|--------------------------------------------------|
F|--------------------------------------------------|
C|----------10--9--------6--7--6--------------------|
G|--------------------------------------------------|
D|-0--0--0---------0--0-----------0--0--0--0--0000--|

guitar 2
D|--------------------------------------------------|
A|--------------------------------------------------|
F|----------12-----------8--9--8--------------------|
C|--------------9-----------------------------------|
G|--------------------------------------------------|
D|-0--0--0---------0--0-----------0--0--0--0--0000--|
               p.h




last riff

both guitars
D|-----------------------------------------------|
A|-----------------------------------------------|
F|-----------------------------------------------|
C|---1----------1----------1---------2--2--2--2--|
G|---1---2--2---1---2--2---1---2--2--2--2--2--2--|
D|--(0)--------(0)--------(0)--------0--0--0--0--|


************************************

| /   slide up
| \   slide down
| h   hammer-on
| p   pull-off
| ~   vibrato
| +   harmonic
| x   Mute note
| b   Bend
| pb  Pre-bend
| br  Bend release
| pbr Pre-bend release
| brb Bend release bend
| p.h. pinch harmonic

************************************
Tap to rate this tab
# A B C D E F G H I J K L M N O P Q R S T U V W X Y Z