Song name
# A B C D E F G H I J K L M N O P Q R S T U V W X Y Z

Soulfly - Bumbklaatt tab

BUMBKLAATT

from: SOULFLY

Tunned to C#?

e|------------------|
B|------------------|
G|------------------|
D|------------------|
A|--some harmonics--|
E|------------------|

                 3x
e|-----------------|------------|
B|-----------------|------------|
G|-----------------|------------|
D|-----------------|------------|
A|--3-3-2-3-/8--6--|--3-3--3-3--|
E|--1-1-0-1-/6--4--|--1-1--1-1--|

e|------------|
B|------------|
G|------------|
D|------------|
A|--2-2--2-2--|
E|--0-0--0-0--|

e|---------|
B|---------|
G|---------|
D|---------|
A|---------|
E|--0-0-1--|

Tabbed by Vogi (vogi@geocities.com)
Tap to rate this tab
 
# A B C D E F G H I J K L M N O P Q R S T U V W X Y Z