Song name
# A B C D E F G H I J K L M N O P Q R S T U V W X Y Z

Soulfly - The Song Remains Insane tab

"The Song Remains Insane" by Soulfly
Off their self titled debut album
Tabbed by Dom Alessio 

Tune down to B (B E A D F# B)

NOTE: This song is "Caos" by Gordo, "Attitude" by Sepultura, and "The Song Remains Insane" by 
Soulfly mixed together into one giant 'insane' song!

LEGEND:
	/ or \ - slide up or down
	~~     - vibrato
	p      - pull off
  	h	 - hammer on
 	b	 - bend
	N	 - natural harmonics
	A	 - artifical harmonics
	*	 - palm mute
	trem.  - tremelo pick
        ^	 - arpeggiate

----------------------------------------------------------------------------

Part One ("Caos" by Gordo)

B|-----------------------|
F|-----------------------|
D|-9-9-9-9-10-10-10-10---|
A|-9-9-9-9-10-10-10-10---|
E|-7-7-7-7--8--8--8--8---|
B|-----------------------|

Break

B|-----------------------|
F|-----------------------|
D|-----------------------|
A|-----------------------|
E|-----------------------|
B|-0-0--0-0--0-0--0-0----|
   * *  * *  * *  * *

Part Two ("Attitude" by Sepultura)

B|------------|
F|------------|
D|------------|
A|------------|
E|-3/5-5-5/6--|
B|-1/3-3-3/4--|

B|-----------|
F|-----------|
D|-----------|
A|-----------|
E|-----------|
B|-1p3-3-3-3-|

Part Three ("The Song Remains Insane" by Soulfly)

B|------------------|
F|------------------|
D|------------------|
A|------------------|
E|-8-8-9-9-6-6-9-9--|
B|-6-6-7-7-4-4-7-7--|

B|----------------------------------------|
F|----------------------------------------|
D|----------------------------------------|
A|----------------------------------------|
E|-6-x-6-x-6-6-x-x-6-x-x-6-6--6-6-x-x-x-x-|
B|-4-x-4-x-4-4-x-x-4-x-x-4-4--4-4-x-x-x-x-|

----------------------------------------------------------------------------

Any suggestions, questions, additions, email me at dimebag@tpgi.com.au
Tap to rate this tab
 
# A B C D E F G H I J K L M N O P Q R S T U V W X Y Z