Guitaretab - guitar tabs
Song name
# A B C D E F G H I J K L M N O P Q R S T U V W X Y Z

Soulfly - Four Elements tab

Band- Soulfly
Song- Four Elements

this verse is played throughout the song is the main verse

E------------------------------------------------------------------|
B------------------------------------------------------------------|
G------------------------------------------------------------------|
D---1-1-1-0----0-1-0-0-0-1-0-0-0-1-0-0-0---------------------------|
A---1-1-1-0----0-1-0-0-0-1-0-0-0-1-0-0-0---------------------------|
D---1-1-1-0----0-1-0-0-0-1-0-0-0-1-0-0-0---------------------------|


This Riff is played when Max Cavalera Sings----"Iíll Break this sh*t, Iíll Throw you 
Iíll make you Bleed." (OR SOMETHING LIKE THAT)
[ Tab from: http://www.guitaretab.com/s/soulfly/64054.html ]
E--------------------------------------------------------------------------|
B--------------------------------------------------------------------------|
G--------------------------------------------------------------------------|
D----1--0--1--0-----1--0--1--0-----1--0--1--0-------0--1--1--1--0----------| 2x
A----1--0--1--0-----1--0--1--0-----1--0--1--0-------0--1--1--1--0----------|
D----1--0--1--0-----1--0--1--0-----1--0--1--0-------0--1--1--1--0----------|


Do this part Fast.  Play this Riff right after the past one
E---------------------------------------------------------------------------|
B---------------------------------------------------------------------------|
G---------------------------------------------------------------------------|
D---0--h-1--0-------------------0--1--1--1--0-------------------------------|Repeat
A---0--h-1--0-------------------0--1--1--1--0-------------------------------| 2x
D---0--h-1--0-------------------0--1--1--1--0-------------------------------|
        (12x)      and then this after each one
Related for Four Elements tab