Song name
# A B C D E F G H I J K L M N O P Q R S T U V W X Y Z

Soulfly - Primative tab

Band- Soulfly
Song- Primative

TUNING: drop d and down one and a half steps (B,F#,B,E,G#,C#)


     INTRO:

    |--------------------------------------------------|    
    |--------------------------------------------------|
    |--11-11-11-11-11---11-11---11-11---11-11-11-11-11-|
    |--12-12-12-12-12---12-12---12-12---12-12-12-12-12-|
    |--------------------------------------------------|
    |--------------------------------------------------|
 
    |-----------------------------|
    |-----------------------------|
    |-11-11-11\13--------13\11----|
    |-12-12-12----12-12--------12-|
    |-----------------------------|
    |-----------------------------|
 
     VERSE:

                   4th time
    |---------|     |---|
    |---------|     |---|
    |---------|     |-6-|
    |-2\3p0-0-|     |-4-|
    |-2\3p0-0-|     |-4-|
    |-2\3p0-0-|     |---|


     INTERLUDE PART:

    |--------------------------------|    
    |--------------------------------|
    |--------------------------------|
    |--------------------------------|
    |--------------------------2--1--|
    |--1p0-0-0-1p0-0-0-1p0-0-0-2--1--|

     CHORUS:

    |--------------------------------|    
    |--------------------------------|
    |--------------------------------|
    |--------------------------------|
    |-----------------------2--1-----|
    |--1p0-0-1p0--1p0--1p0--2--1-----|
Tap to rate this tab
# A B C D E F G H I J K L M N O P Q R S T U V W X Y Z