Song name
# A B C D E F G H I J K L M N O P Q R S T U V W X Y Z

Soulfly - Corrosion Creeps tab

Tuning: Standard
INTRO (play the intro very fast.listen to the song for the right pattern )
||-------------------------------------|
||-------------------------------------|
||-------------------------------------|  
||-------------------------------------|  
||-------------------------------------|
||-1111111\5555555\44444\22222---etc---|
                                                    
Riff 1          
|-----------------|---------------------------------|
|-----------------|---------------------------------|
|-----------------|---------------------------------|
|-----------------|---------------------------------|
|-----------------|---------------------------------|
|-2-1-0-3-0-0-1-2-|-2-1-0-0-3-0-0-1-2---------------|

[INTRO]
[Riff 1]
Then :      

Riff 2
|---------------------------------------------------|
|---------------------------------------------------|
|---------------------------------------------------|
|---------------------------------------------------|
|-3-4-5-3-4----------5-6-7-6-7----------------------|
|-1-2-3-1-2----------3-4-5-4-5----------------------|

[Riff 1]
[Riff 2]
sorry about the solo,working on it...
[Riff 2]
[Riff 1]
[INTRO]

 OUTRO     
|-------------------------------------------------|
|-------------------------------------------------|
|-------------------------------------------------|
|-10-10-10-9.-----6-5-----------------------------|
|-------------------------------------------------|
|-------------------------------------------------|
           
|-------------------------------------------------|
|-------------------------------------------------|
|-------------------------------------------------|
|-------------------------------------------------|
|-3-4---3-4---3-4---3-2---------------------------|
|-1-2---1-2---1-2---1-0---------------------------|

That's all !
Tap to rate this tab
 
# A B C D E F G H I J K L M N O P Q R S T U V W X Y Z