Song name
# A B C D E F G H I J K L M N O P Q R S T U V W X Y Z

Soulfly - Inflikted After The Slaughter tab

Help us improve GuitareTab! Take a short survey!
----------------------------------------------------------------------------

                            INFLIKTED (After the Slaughter)
                                          by
                                        Soulfly

---------------------------------------------------------------------------
Tabbed by: Dave Ingram
Email/MSN: daveluffsgab@hotmail.com

Tuning: Drop B

NOTE; Yes,I know that Inflikted is a 4track demo of the next Soulfly record, but its a 
one nonetheless and it desrves recognition.
This is my first attempt at tabbing something, so email me with any opinions you have.

-|Intro x1
e|----------------------------------|
B|----------------------------------|
G|----------------------------------|
D|----------------------------------|
A|----------------------------------|
E|-0-0-000-000-000-0-0-000-000-000--|

-|Verse pt.1 x16
e|-----------------------------------------------------------------------------------|
B|-----------------------------------------------------------------------------------|
G|-----------------------------------------------------------------------------------|
D|-----------------------------------------------------------------------------------|
A|-----------------------------------------------------------------------------------|
E|-4-0-1-0-0-0-0-0-------------------------------------------------------------------|

-|Verse pt.2 x2 - then repeat Pt.1 and 2
e|------------------------------------------------------------------------------------|
B|------------------------------------------------------------------------------------|
G|------------------------------------------------------------------------------------|
D|------------------------------------------------------------------------------------|
A|------------------------------------------------------------------------------------|
E|-0-0-00-00-0-00---------------------------------------------------------------------|

-|Pre-Chrous x4
e|--------------------------------------------------------------------------|
B|--------------------------------------------------------------------------|
G|-2-2-6-2-6--6-2-6--6-2-6~-------------------------------------------------|
D|-0-0-4-0-4--4-0-4--4-0-4~-------------------------------------------------|
A|--------------------------------------------------------------------------|
E|--------------------------------------------------------------------------|

-|Chorus x8
e|--------------------------------------------------------------------------|
B|--------------------------------------------------------------------------|
G|--------------------------------------------------------------------------|
D|--------------------------------------------------------------------------|
A|-----------4-5-4----------------------------------------------------------|
E|-0-0-0-0-0--------0-0-0-0-0--3-4-3----------------------------------------|


Following the Chorus, repeat Verse pt.1 and 2, followed by Pre-Chorus and Chorus.

-|Bridge pt.1 x5
e|-------------------------------------------------------|
B|-------------------------------------------------------|
G|-------------------------------------------------------|
D|---2---------------------------------------------------|
A|---0---------------------------------------------------|
E|-1---1111111111111111122222-4-21111111111111111122222--|


-|Bridge pt.2 x7
e|--------------------------------------------------------------------------|
B|--------------------------------------------------------------------------|
G|--------------------------------------------------------------------------|
D|-2------------------------------------------------------------------------|
A|-0-1-1-1-2-1-1-1----------------------------------------------------------|
E|---1-1-1-2-1-1-1----------------------------------------------------------|


-|Outro x13 (I couldn't be bothered to type it repeatedly haha)
e|--------------------------------------------------------------------------|
B|--------------------------------------------------------------------------|
G|--------------------------------------------------------------------------|
D|------11------------------------------------------------------------------|
A|------9-------------------------------------------------------------------|
E|-0000---------------------------------------------------------------------|

And thats it. Sorry if its kind of hard to understand, its just the way I tab stuff. 
Tried to make it as easy to understand as possible though, so email me if you have any trouble
Cheers!!

Dave


| /  slide up
| \  slide down
| h  hammer-on
| p  pull-off
| +  harmonic
| x  Mute note
============================================================================
Related for Inflikted After The Slaughter tab