Song name
# A B C D E F G H I J K L M N O P Q R S T U V W X Y Z

Soulive - Shaheed tab

Band/Artist: Soulive
Title: Shaheed
Album: Doin’ Something
Transcribed by: Jeffwilliams413
Website: www.jeffwilliamsguitarinstruction.com
Tuning: Standard

|  h = hammer on 
|  ^ = half bend/partial bend 
|  / = slide up 


Intro

	Am7#5   Bbmaj13
e|-----------------------| 
B|------6--------8-------| 
G|------5--------7-------| 
D|------5--------7-------| 
A|------x--------x-------| 
E|------5--------6-------| 

Hits

   Cmaj9 Amaj7	Bbmaj7 Dbmaj9 G13   Cmaj9 Amaj7   Bbmaj7 Dbmaj9
e|-------------|--------------------|-------------|-------------| 
B|----3---5----|----6------4---5----|----3---5----|----6---4----| 
G|----4---6----|----7------5---4----|----4---6----|----7---5----| 
D|----2---6----|----7------3---3----|----2---6----|----7---3----| 
A|----3---x----|----x------4---x----|----3---x----|----x---4----| 
E|--------5----|----6----------3----|--------5----|----6--------| 

Theme 1 (keys)

    Cmaj9 Amaj7	  Bbmaj7 Dbmaj9 G13   
e|---------------|---------------------|
B|----3----5-----|----6-------4---5----| 
G|----4----6-----|----7-------5---4----| 
D|----2----6-----|----7-------3---3----| 
A|----3----x-----|----x-------4---x----| 
E|---------5-----|----6-----------3----| 

Theme 2 (keys & gtr)

  Eb7#9			     C#7#9	    Bb7		      Ab7
e|----9-6------------------|--------------|-----------------|--------------|
B|-7-------9—7^----------7-|-/9--9--9--8--|-6-6-----6-6-7-6-|-8--5---8-8-8-| 
G|-6-------------9--6--8---|--------------|-----6h7---------|--------------| 
D|-5-----------------------|--------------|-----------------|--------------|
A|-6-----------------------|--------------|-----------------|--------------|
E|-------------------------|--------------|-----------------|--------------| 

Interlude

    C7#9  C#7#9     D7#9  G13
e|--------------|--------------|
B|----3----5----|----6----5----| 
G|----4----4----|----5----4----| 
D|----2----3----|----4----3----| 
A|----3----4----|----5----x----| 
E|--------------|---------3----| 
Tap to rate this tab
 
# A B C D E F G H I J K L M N O P Q R S T U V W X Y Z