Song name
# A B C D E F G H I J K L M N O P Q R S T U V W X Y Z

Soulja Boy - Let Me Get Em Shoot Out tab

-------------------------------------------------------------------------------
	          LET ME GET EM (Shoot Out) - Soulja Boy 
-------------------------------------------------------------------------------
Tabbed by:Sound Mind
Email:kagenecros@hotmail.com

Tuning:Standard

e|--8---8-9-8-|
B|6---6-------|
G|------------|
D|------------|
A|------------|
E|------------|

e|---20----20-21-20-|
B|18----18----------|
G|------------------|
D|------------------|
A|------------------|
E|------------------|

This is very easy.

| /  slide up
| \  slide down
| h  hammer-on
| p  pull-off
| ~  vibrato
| +  harmonic
| x  Mute note
===============================================================================
Tap to rate this tab
 
# A B C D E F G H I J K L M N O P Q R S T U V W X Y Z