Song name
# A B C D E F G H I J K L M N O P Q R S T U V W X Y Z

Soulja Boy - All The Way Turnt Up tab

-------------------------------------------------------------------------------
			  All the Way Turnt Up - Roscoe Dash ft. Soulja boy
-------------------------------------------------------------------------------
Tabbed by:Greg
Email:gpoteau22@aol.com

Tuning:Standard;This is a one string, either of the 6 string works, I'd prefer the high 
string though, because of the high pitch.

e|---4---2-0-2---4-5-4--2-0-2---4--------------------------------------------|
B|---------------------------------------------------------------------------|
G|---------------------------------------------------------------------------|
D|---------------------------------------------------------------------------|
A|---------------------------------------------------------------------------|
E|---------------------------------------------------------------------------|
Chorus: When they sing "all the way turnt up"
e|---------------------------------------------------------------------------|
B|---4----2----0----2----0---------------------------------------------------|
G|---------------------------------------------------------------------------|
D|---------------------------------------------------------------------------|
A|---------------------------------------------------------------------------|
E|---------------------------------------------------------------------------|
Bass: You or your friend can add some bass to the song this is the bass tab
e|---------------------------------------------------------------------------|
B|---------------------------------------------------------------------------|
G|---------------------------------------------------------------------------|
D|---------------------------------------------------------------------------|
A|----------5----------------------------------------------------------------|
E|--7----------------5------------7------------------------------------------|
Just repeat that throughout the whole song

Thanks and enjoy!
Tap to rate this tab
# A B C D E F G H I J K L M N O P Q R S T U V W X Y Z