Song name
# A B C D E F G H I J K L M N O P Q R S T U V W X Y Z

Soulja Boy - Crank That tab

i figured this out listening to the travis barker remix. it sounds sick and it fun to play with a friend

intro
guitar 1
---------------------------------------|
---------------------------------------|
---------------------------------------|
-10~----10~----------------------------|
-10~----10~----------------------------|
-10~----10~----------------------------|

guitar 2
---------------------------------------|
-13-8-9-13-8---------------------------|
---------------------------------------|
---------------------------------------|
---------------------------------------|
---------------------------------------|

verse
guitar 1 muted listen for strumming
---------------------------------------|
---------------------------------------|
---------------------------------------|
-10-----6-----8------------------------|
-10-----6-----8------------------------|
-10-----6-----8------------------------|

guitar 2
---------------------------------------|
-13-8-8-9-13-13-8-9--------------------|
---------------------------------------|
---------------------------------------|
---------------------------------------|
---------------------------------------|

chorus
guitar 1 listen for strumming
---------------------------------------|
---------------------------------------|
---------------------------------------|
-10-----6-----8------------------------|
-10-----6-----8------------------------|
-10-----6-----8------------------------|

guitar 2
---------------------------------------|
-13-8-9-13-8---------------------------|
---------------------------------------|
---------------------------------------|
---------------------------------------|
---------------------------------------|


thats pretty much it enjoy
Tap to rate this tab
# A B C D E F G H I J K L M N O P Q R S T U V W X Y Z