Song name
# A B C D E F G H I J K L M N O P Q R S T U V W X Y Z

Soulsavers - Some Misunderstanding tab

Soulsavers - Some Misunderstanding
Originally written by Gene Clark

This is the intro chords and solo that I've worked out, note that lead guitar is tuned 
in Drop D tuning.

4/4

Rhythm Chords:

       F     Gm    C     Gm   Dm

E|-----1--|--3--|--0--|--3--|--1-------|
B|-----1--|--3--|--1--|--3--|--3-------|
G|-----2--|--3--|--0--|--3--|--2-------|
D|-----3--|--5--|--2--|--5--|--0-------|
A|-----3--|--5--|--3--|--5--|----------|
E|-----1--|--3--|-----|--3--|----------|

Bars:  2     2     1     1     2


Solo Guitar:

E|----------------------(1)---1--------------------------------------------|
B|-----------------------------3--1~---1x----------------------------------|
G|-----------------2h3~-----------0~---0x-0--3-----------------------------|
D|----------------------------------------0--5---0-1-2-3-2-0---------------|
A|-------------------------------------------5---------------3-0h2-0-(0)---|
D|------3-2-3-4-5-----------------------------------------------------0~---|

E|--(1)--------10--10~--10--10--10-8~--------------------------------------|
B|---1----(s10)--10-------10--10---10~--10p8s6-(8)s10-6-8*--s8-6-8~~-------|
G|---2---------------------------------------------------------------------|
D|---3-----------------*This note can either be G or A (8 or 10),----------|
A|----------------------but I prefer to play a G note----------------------|
D|-------------------------------------------------------------------------|

E|-------------------------------|
B|--pb8r-6x--6(b)----------------|
G|---------7x--7~---5h7p5--s7~---|
D|-----------------------7x------|
A|-------------------------------|
D|-------------------------------|

More to come...


Legend:
h - Hammer On
p - Pull Off
s - Slide
b - Bend
r - release
pb - Pre Bend
x - Right after the note is played, mute it with your hand to keep it from ringing
~ - Vibrato
* - Hint
() - Optional
Tap to rate this tab
 
# A B C D E F G H I J K L M N O P Q R S T U V W X Y Z