Song name
# A B C D E F G H I J K L M N O P Q R S T U V W X Y Z

Soulsavers - Presence Of God tab

|---------------|
|---------------|
|--------0------|   INTRO 5x
|------2--------|
|---------------|
|---0-----------|


|--------------------------------------------------------------------------------------|
|--------------------------------------------------------------------------------------|
|--------0-------0---------0---------------2-------2-------2--------------0---------0--|
|------2-------2--------2---------------2--------2-------2--------------2---------2----|
|-------------------------------------0--------0-------0--------2----------------------|
|---0--------0-------0---------3--/0-------------------------------3--0--------0-------|

This second part goes in the verse and the chorus. Listen the song and try to play 
along, you'll hear it.
Tap to rate this tab
 
# A B C D E F G H I J K L M N O P Q R S T U V W X Y Z