Song name
# A B C D E F G H I J K L M N O P Q R S T U V W X Y Z

Soulsavers - Kingdom Of Rain tab

Help us improve GuitareTab! Take a short survey!
-------------------------------------------------------------------------------
			     Kingdom Of Rain-The The
-------------------------------------------------------------------------------
Tabbed by:
Email:

Tuning: Standard
                           Piano line
e|---2------0-------------------15-14-------9---------------------------|
B|----3-------5-----------------------15-12-----------------------------|
G|---0----------6-------------------------------------------------------|
D|---2------------7-----------------------------------------------------|
A|---2------------7-----------------------------------------------------|
E|---0-----------------------12-----------------------------------------|

  Tell me what youre thinking baby, youre hearts beating faster than mine
e|-2---------------------------0------------2---------------------------0------|
B|--3---------------------------5------------3---------------------------5-----|
G|-0-----------------------------6----------2-----------------------------6----|
D|-2------------------------------7---------2------------------------------7---|
A|-2------------------------------7---------2------------------------------7---|
E|-0----------------------------------------0----------------------------------|

  And I know somethings going on  in your life      in your life
e|--2--------------------0----------2--------0--------2------0-----------------|
B|---3--------------------5----------3--------5--------3------5----------------|
G|--0----------------------6--------0----------6------0--------6---------------|
D|--2-----------------------7-------2-----------7-----2---------7--------------|
A|--2-----------------------7-------2------------7----2---------7--------------|
E|--0-------------------------------0-----------------0------------------------|

  You were the girl I wanted to cry with, you were the girl I wanted to die with
e|-2----------------------------0---------2-------------------0-------------------|
B|--3----------------------------5---------3-------------------5------------------|
G|-0------------------------------6-------0---------------------6-----------------|
D|-2-------------------------------7------2----------------------7----------------|
A|-2-------------------------------7------2----------------------7----------------|
E|-0--------------------------------------0---------------------------------------|

  You were the boy who turned into the man, broke my heart & let go of my hand
e|-2-------------------0--------------------2--------------------0----------------|
B|--3-------------------5--------------------3--------------------5---------------|
G|-0---------------------6------------------0----------------------6--------------|
D|-2----------------------7-----------------2-----------------------7-------------|
A|-2----------------------7-----------------2-----------------------7-------------|
E|-0----------------------------------------0-------------------------------------|

  Our bed is empty, the fire is out all the love weve got to give is all spurted out
e|-----------------------------------------------------------------------------------|
B|-----------------------------------------------------------------------------------|
G|--------------------4--------------------------------4--------------------4--------|
D|-0-2-----4-5-------------------5---0-2----4-----5-----------5----0-2--4-5----5-----|
A|-----------------------------------------------------------------------------------|
E|-----------------------------------------------------------------------------------|
  Theres no more blood and no more pain in our kingdom of rain
e|-----------------------------------------------------------------------------------|
B|-----------------------------------------------------------------------------------|
G|---------------4------------------4----------------4-------------------------------|
D|---0-2---4-5------5------0--2-4-5----5---0-2--4-5-----5----------------------------|
A|-----------------------------------------------------------------------------------|
Related for Kingdom Of Rain tab