Song name
# A B C D E F G H I J K L M N O P Q R S T U V W X Y Z

Soulwax - Funny tab

ARTIST: SOULWAX
SONG: FUNNY
TRANSCRIBED BY PAUL MCCARTHY

ONLY REALY HAS ONE SIMPLE RIFF ALL THE WAY THROUGH,
STILL PRETTY GOOD THOGH, GOES AS FOLLOWS:-

E---------------------------------------------|
A--4--4--4--4--4-4--4--4--4-4--4/6--6/7-------|
D---------------------------------------------|
G--6--6--6--6--6-6--6--6--6-6--6/8--8/9-------|
B---------------------------------------------|
e---------------------------------------------|

E-----------------------------------------------|
A--7--7--7--7--7-7--7--7--7-7--7--7/11----------|
D-----------------------------------------------|
G--9--9--9--9--9-9--9--9--9-9--9--9/13----------|
B-----------------------------------------------|
e-----------------------------------------------|

E------------------------------------------------------|
A--11--11--11/9--9--9---9--9--9--9--9--9--9--9/10-10---|
D------------------------------------------------------|
G--13--13--13/11-11-11--11-11-11-11-11-11-11-11/12-12--|
B------------------------------------------------------|
e------------------------------------------------------|

AND SO ON ALL THE WAY THROUGH.
ANY MORE SOULWAX TABS OR ANY CORRECTIONS TO THIS
ONE EITHER POST ON HERE OR SEND TO KORINA62@AOL.COM
CHEERS, AND REMEMBER, NOTHING GETS EASYER, YOU GET BETTER!!!
Tap to rate this tab
# A B C D E F G H I J K L M N O P Q R S T U V W X Y Z