Song name
# A B C D E F G H I J K L M N O P Q R S T U V W X Y Z

Soulwax - More Than This tab

------------------------------------------------------------------------
			     More than this - Soulwax
------------------------------------------------------------------------
Tabbed by:deHufter
Email:kurtkill@hotmail.com

Tuning:standard

Intro + verse:
e|-0-0--000--0-----0-0--000--0---------------------------------------------|
B|-0-0--000--0-----0-0--000--0---------------------------------------------|
G|-1-1--111--1-----1-1--111--1---------------------------------------------|
D|-2-2--222--2-----3-3--333--3---------------------------------------------|
A|-------------------------------------------------------------------------|
E|-------------------------------------------------------------------------|

Meantime....
e|-0-0--000--0-----0-0--000--0---------------------------------------------|
B|-0-0--000--0-----0-0--000--0---------------------------------------------|
G|-1-1--111--1-----0-0--000--0---------------------------------------------|
D|-2-2--222--2-----2-2--222--2---------------------------------------------|
A|-------------------------------------------------------------------------|
E|-------------------------------------------------------------------------|

Chorus:
e|--0---2---3---5---2------------------------------------------------------|
B|--0---4---5---7---4------------------------------------------------------|
G|--1---4---5---7---4------------------------------------------------------|
D|--2---4---5---7---4------------------------------------------------------|
A|--2---2---3---5---2------------------------------------------------------|
E|--0----------------------------------------------------------------------|

3:25: lead guitar
e|-------------------------------------------------------------------------|
B|--8-7-5-8~-7~----8-7-5-7^9--5h7p5~---------------------------------------|
G|-------------------------------------------------------------------------|
D|-------------------------------------------------------------------------|
A|-------------------------------------------------------------------------|
E|-------------------------------------------------------------------------|

3:25: rythm guitar
e|--0---2---0--------------------------------------------------------------|
B|--0---2---0--------------------------------------------------------------|
G|--0---3---1--------------------------------------------------------------|
D|--2---4---2--------------------------------------------------------------|
A|--2---4---2--------------------------------------------------------------|
E|--0---2---0--------------------------------------------------------------|
Tap to rate this tab
 
# A B C D E F G H I J K L M N O P Q R S T U V W X Y Z