Song name
# A B C D E F G H I J K L M N O P Q R S T U V W X Y Z

Soulwax - Krack tab

soulwax krack

listen to the song for timing

main riff (sometimes played with powerchords
E||------------------------|-----------------------|----------------------|
B||------------------------|-----------------------|----------------------|
G||------------------------|-----------------------|----------------------|
D||------------------------|-----------------------|----------------------|
A||------------------------|-----------------------|----------------------|
D||---5----5----5----5b6---|--0--0----0--0------0--|--3----3----3----3----|

------------------------|
------------------------|
------------------------|
------------------------|
------------------------|
--4--4----4--4------4---|

Bridge
                
|--------------------|-------------------|
|--------------------|-------------------|
|---5----------------|--4----------------|
|---3----------------|--0----------------|
|---3----------------|--0----------------|
|---3----------------|--0----------------|

leat during the last bride
|------------------------|------------------------|
|-----------6-------6----|-----------7-------7----|
|--5--7--5-------7-------|--5--7--5-------7-------|
|------------------------|------------------------|
|------------------------|------------------------|
|------------------------|------------------------|
Tap to rate this tab
 
# A B C D E F G H I J K L M N O P Q R S T U V W X Y Z