Song name
# A B C D E F G H I J K L M N O P Q R S T U V W X Y Z

Sound Bridge - Sound Of Whisper tab

Gtr1-Lead(norman)
Gtr2-Rythm


INTRO

Gtr1
e|------------------------|
B|------------------------|
G|---7-6-7-9-7-6-7--------| (2x)
D|--5---------------------|
A|------------------------|
E|------------------------|

e|------------------------|
B|------------------------|
G|----7-6-7-9-10-9--------|
D|--5--------------7-5~---|
A|------------------------|
E|------------------------|

INTERLUDE 1

Gtr1
e|----------------------------------------|
B|----------------------------------------|
G|---7679767-7679767-7679767-76767-76767--| (3x)
D|--5-------5-------5-------5-----5-------|
A|----------------------------------------|
E|----------------------------------------|

e|--------------------------------|
B|--------------------------------|
G|---7----------------------------| (3x)
D|---7(x8)--8------5------7-------|
A|---5------8(x8)--5(x8)--7(X8)---|
E|----------6------3------5-------|

Gtr2
e|------------------------|
B|------------------------|
G|------------------------| (2x)
D|----555/77/88\777\5-----|
A|----555/77/88\777\5-----|
E|----333/55/66\555\3-----|

e|----------------------------------------|
B|----------------------------------------|
G|----------------------------------------|
D|----555/77/88\777\555\444444444444------|
A|----555/77/88\777\555\444444444444------|
E|----333/55/66\555\333\222222222222------|

e|------------------------|
B|------------------------|
G|------------------------| (2x)
D|----555/77/88\777\5-----|
A|----555/77/88\777\5-----|
E|----333/55/66\555\3-----|

e|----------------------------------------|
B|----------------------------------------|
G|----------------------------------------|
D|----555/77/88\777\555-------------------|
A|----555/77/88\777\555-------------------|
E|----333/55/66\555\333/999999999999------|

VERSE 1

Gtr1
e|--------------------------------|
B|--------------------------------|
G|---7----------------------------| (2x)
D|---7(x8)--8------5------7-------|
A|---5------8(x8)--5(x8)--7(X8)---|
E|----------6------3------5-------|

Gtr2
e|----------------------------------------|
B|----------------------------------------|
G|---7-----10------5------3-------5-------| (2x)
D|---x(x8)--x(x4)--x(x4)--x(x12)--x(x4)---|
A|---5------8------3------1-------3-------|
E|----------------------------------------|

PRE-CHORUS

Gtr1
e|--------------------------------|
B|--------------------------------|
G|---7----------------------------| (2x)
D|---7(x8)--8------5------7-------|
A|---5------8(x8)--5(x8)--7(X8)---|
E|----------6------3------5-------|

Gtr2
e|--------------------------------|
B|--------------------------------|
G|---7~---------------------------| (2x)
D|---7~-----8~-----5~-----7~------|
A|---5~-----8~-----5~-----7~------|
E|----------6~-----3~-----5~------|

CHORUS

Gtr1
e|--------------------------------|
B|--------------------------------|
G|---7----------------------------| (2x)
D|---7(x8)--8------5------7-------|
A|---5------8(x8)--5(x8)--7(X8)---|
E|----------6------3------5-------|

Gtr2
e|----------------------------------------|
B|----------------------------------------|
G|---7-----10----12----14----12----10-----|
D|---x(x8)-x(x4)-x(x4)-x(x8)-x(x4)-x(x4)--|
A|---5-----8-----10----12----10----8------|
E|----------------------------------------|

e|--------------------------------|
B|--------------------------------|
G|---7------5------3------2-------|
D|---x(x8)--x(x8)--x(x8)--x(x8)---|
A|---5------3------1------0-------|
E|--------------------------------|

INTERLUDE 2

e|--------------------------------|
B|--------------------------------|
G|---7----------------------------| (2x)
D|---7(x8)--8------5------7-------|
A|---5------8(x8)--5(x8)--7(X8)---|
E|----------6------3------5-------|

Gtr2
e|------------------------|
B|------------------------|
G|------------------------| (2x)
D|----555/77/88\777\5-----|
A|----555/77/88\777\5-----|
E|----333/55/66\555\3-----|

e|----------------------------------------|
B|----------------------------------------|
G|----------------------------------------|
D|----555/77/88\777\555\444444444444------|
A|----555/77/88\777\555\444444444444------|
E|----333/55/66\555\333\222222222222------|

e|------------------------|
B|------------------------|
G|------------------------| (2x)
D|----555/77/88\777\5-----|
A|----555/77/88\777\5-----|
E|----333/55/66\555\3-----|

e|----------------------------------------|
B|----------------------------------------|
G|----------------------------------------|
D|----555/77/88\777\555-------------------|
A|----555/77/88\777\555-------------------|
E|----333/55/66\555\333/999999999999------|

VERSE 2

Gtr1
e|--------------------------------|
B|--------------------------------|
G|---7----------------------------| (2x)
D|---7(x8)--8------5------7-------|
A|---5------8(x8)--5(x8)--7(X8)---|
E|----------6------3------5-------|

Gtr2
e|----------------------------------------|
B|----------------------------------------|
G|---7-----10------5------3-------5-------| (2x)
D|---x(x8)--x(x4)--x(x4)--x(x12)--x(x4)---|
A|---5------8------3------1-------3-------|
E|----------------------------------------|

PRE-CHORUS

Gtr1
e|--------------------------------|
B|--------------------------------|
G|---7----------------------------| (2x)
D|---7(x8)--8------5------7-------|
A|---5------8(x8)--5(x8)--7(X8)---|
E|----------6------3------5-------|

Gtr2
e|--------------------------------|
B|--------------------------------|
G|---7~---------------------------| (2x)
D|---7~-----8~-----5~-----7~------|
A|---5~-----8~-----5~-----7~------|
E|----------6~-----3~-----5~------|

CHORUS

Gtr1
e|--------------------------------|
B|--------------------------------|
G|---7----------------------------| (2x)
D|---7(x8)--8------5------7-------|
A|---5------8(x8)--5(x8)--7(X8)---|
E|----------6------3------5-------|

Gtr2
e|----------------------------------------|
B|----------------------------------------|
G|---7-----10----12----14----12----10-----|
D|---x(x8)-x(x4)-x(x4)-x(x8)-x(x4)-x(x4)--|
A|---5-----8-----10----12----10----8------|
E|----------------------------------------|

e|--------------------------------|
B|--------------------------------|
G|---7------5------3------2-------|
D|---x(x8)--x(x8)--x(x8)--x(x8)---|
A|---5------3------1------0-------|
E|--------------------------------|

after the chorus...

Gtr2(Lower volume of strum)
e|--------------------------------|
B|--------------------------------|
G|---7----------------------------| (2x)
D|---7(x8)--8------5------7-------|
A|---5------8(x8)--5(x8)--7(X8)---|
E|----------6------3------5-------|

PRE-CHORUS

Gtr1
e|--------------------------------|
B|--------------------------------|
G|---7----------------------------| (2x)
D|---7(x8)--8------5------7-------|
A|---5------8(x8)--5(x8)--7(X8)---|
E|----------6------3------5-------|

Gtr2
e|--------------------------------|
B|--------------------------------|
G|---7~---------------------------| (2x)
D|---7~-----8~-----5~-----7~------|
A|---5~-----8~-----5~-----7~------|
E|----------6~-----3~-----5~------|

CHORUS

Gtr1
e|--------------------------------|
B|--------------------------------|
G|---7----------------------------| (2x)
D|---7(x8)--8------5------7-------|
A|---5------8(x8)--5(x8)--7(X8)---|
E|----------6------3------5-------|

Gtr2
e|--------------------------------|
B|--------------------------------|
G|---7----------------------------| (2x)
D|---7(x8)--8------5------7-------|
A|---5------8(x8)--5(x8)--7(X8)---|
E|----------6------3------5-------|

INTERLUDE 3

Gtr2
e|------------------------|
B|------------------------|
G|------------------------| (2x)
D|----555/77/88\777\5-----|
A|----555/77/88\777\5-----|
E|----333/55/66\555\3-----|

e|----------------------------------------|
B|----------------------------------------|
G|----------------------------------------|
D|----555/77/88\777\555\444444444444------|
A|----555/77/88\777\555\444444444444------|
E|----333/55/66\555\333\222222222222------|

e|--------------------------------|
B|--------------------------------|
G|---7----------------------------| (3x)
D|---7(x8)--8------5------7-------|
A|---5------8(x8)--5(x8)--7(X8)---|
E|----------6------3------5-------|

|--------|
|--------|
|---7~~--|
|---7~~--|
|---5~~--|
|--------|

Gtr1
e|--------------------------------|
B|--------------------------------|
G|---7----------------------------| (2x)
D|---7(x8)--8------5------7-------|
A|---5------8(x8)--5(x8)--7(X8)---|
E|----------6------3------5-------|

e|----------------|
B|---4b\2/6~~-----|
G|---5b\3/7~~-5~--|
D|----------------|
A|----------------|
E|----------------|


if there are some errors to this original tab just send me message @ this email
add bob_bryar012@yahoo.com
Tap to rate this tab
 
# A B C D E F G H I J K L M N O P Q R S T U V W X Y Z