Song name
# A B C D E F G H I J K L M N O P Q R S T U V W X Y Z

Sound Jaxx Autopsy - Guerrillas Dont Sleep tab

GUERRILLAS DON?T SLEEP

intro:
clean
E ------------------------------------------|      x2
B ------------------------------------------|
G -------4-3------4-3-----4-3----4-3--------|
D ---0-2------0-2-----0-2-----02------------|
A  -----------------------------------------|
E ------------------------------------------|

verse/chorus:
distorted power chords
G     A      D    D   keep repeating through whole song

solo:
E --7-10--------------------------------------7-7-7------7-10--------|x2
B ------7-10----------------7-10--------------7-7-7--7-10-----7-10---|
G ------------7-9-----7-9-7------7-9-7------9---------------------7--|
D ----------------7-9-----------------9-7-7--------------------------|
A -------------------------------------------------------------------|
E -------------------------------------------------------------------|

back to verse/chorus
Tap to rate this tab
# A B C D E F G H I J K L M N O P Q R S T U V W X Y Z