Song name
# A B C D E F G H I J K L M N O P Q R S T U V W X Y Z

Sound Of Music - Edelweiss tab

Edelweiss (guitar arrangement in original key of Bb)

3/4 time
Standard Tuning
Capo at 3rd Fret
Fingerstyle
|:---:| = repeat


Play:  A1 A2  B  A3



Part A

1  e     del  weiss      e     del  weiss
2  small and  white      clean and  bright
3  e     del  weiss      e     del  weiss
   G          D7         G/B        C       
e-----------|-5--------|-3--------|----------|
b-:0--0--3--|-3--3--3--|-0--0--3--|-1--1--1-:|
G--0--0-----|-5--5--5--|-0--0-----|-0--0--0--|
D--0--------|-4--4--4--|----------|-2--2--2-:|
A-:---------|----------|-2--------|-3--------|
E--3--------|----------|----------|----------|
   (let ring)

1____________________________________________
   ev'   ry  morningyou  greet      me
   G                     Am         D7
------------|----------|-0--------|----------|
---0--0--0--|-0--1--3--|-1--1--1--|-3--------|
---0--0-----|----------|-2--2--2--|-5--5--5--|
---0--------|----------|----2--2--|-4--4--4--|
------------|----0--2--|-0--------|-5--5--5--|
---3--------|-3--------|----------|----------|

2____________________________________________
   you  look  happy to   meet       me
3  bless my  homelandfor ev         er
   G          D7         G          Em
------------|----0--2--|-3--3--3--|-3--3--3--|
---0--0--3--|-3--------|-0--0--0--|-0--0--0--|
---0--0-----|-5--------|-0--0--0--|-0--0--0--|
---0--------|-4-----0--|----------|----------|
------------|----0-----|----------|----------|
---3--------|----------|-3--------|-3--------|

Part B
   blossom ofsnowmayyou bloom  and  grow
   D7                    G          Em
---5--------|-2--0-----|----------|-3--3--3--|
---3--3--3-3|-------3--|-0--0--3--|-0--0--0--|
---4--4-----|----------|-0--0-----|-0--0--0--|
---5--5-----|-0--------|-0--------|----------|
------------|----3--2--|----------|----------|
------------|----------|-3--------|-0--------|


   bloom and  grow  for  ev         er
   C          A     A7   D          D7
---0--0--3--|-5--5--3--|-2--2--2--|-2--2--2--|
---1--1--1--|-2--2--2--|-3--3--3--|-1--1--1--|
---0--0--0--|-2--2--2--|-2--2--2--|-2--2--2--|
---2--2--2--|-------2--|-0--------|-0--------|
---3--------|-0--------|----------|----------|
------------|----------|----------|----------|
Tap to rate this tab
 
# A B C D E F G H I J K L M N O P Q R S T U V W X Y Z