Song name
# A B C D E F G H I J K L M N O P Q R S T U V W X Y Z

Sound Of Music - Sixteen Going On Seventeen tab

First off i know for a fact that this isn't perfect it's my first shot at this so 
chill m_m (= but i was bored and i gave it my best xD i'm only 15 for god's sakes =D

key:
~ = let ring
< = repeat line

   (You wait little girl...) 
E||------------------------|---------------------------|<
B||-4-1--------4-4-1-------|-1-----------1-------------|<
G||-----1-1-1~-------1-1~--|----1-----------1----------|<
D||------------------------|-------3-3~--------3~------|<
A||------------------------|---------------------------|<
E||------------------------|---------------------------|<

  (girl-repeats.'to write on')
E |---8~~-------------------|
B |------4~~----------------|
G |---------1~~-------------|
D |-------------------------|
A |-------------------------|
E |-------------------------|

(male: 'You are sixteen...")                        *******   
E |-------------------------|-------------------------|   *
B |--1-0-1-2----------------|-------------------------|   *
G |-------------------------|--1-1--3-4-5--0~---------|   
D |-----------1-1-3---4-4-5-|-------------------------|   
A |-------------------------|-------------------------|   
E |-------------------------|-------------------------|   
  (better, beware be...)                               >Repeat Once<
E |-------------------------|-------------------------|   
B |-------------------------|-4-2-1-------------------|   
G |---3----3------1----1----|----------0--0--1--------|   
D |-3----3---3--1----1---1--|-------------------------|   
A |-------------------------|-------------------------|   * 
E |-------------------------|-------------------------|   * 
                                                     ******     
  (male: Totally Unprepared are you...)     
E |-------------------------|-------------------------|
B |--------2----------------|-------------------------|
G |-1-0--1-------0-0-0------|----0-1--0--1--0---------|
D |-----------3-------------|------------------3~-----|
A |-------------------------|-------------------------|
E |-------------------------|-------------------------|
  (...)
E |-------------------------|-------------------------|
B |-------2-----------------|----------4-4------------|
G |-1-0-1-------0-0-0-------|--1--3-3-------0---------|
D |----------3--------------|-------------------------|
A |-------------------------|-------------------------|
E |-------------------------|-------------------------|

  
the rest of the parts are pretty much in there (= good  luck
Tap to rate this tab
# A B C D E F G H I J K L M N O P Q R S T U V W X Y Z