Song name
# A B C D E F G H I J K L M N O P Q R S T U V W X Y Z

Sound Of Music - My Favorite Things tab

Each verse looks something like this except for the last verse:

|--0-7-7---------------------------7-7------------------------7-5---------5-3-------|
|--------7-5-5-0-5-5-7-5---------5-----7-5-5-0-5-5-7-5------5-----5-7-3-3-----1-----|
|-----------------------------------------------------------------------------------|
|-----------------------------------------------------------------------------------|
|-----------------------------------------------------------------------------------|
|-----------------------------------------------------------------------------------|

|------------3-5-7-5---------|
|--0-1-3-5-7---------4-------|
|----------------------------|
|----------------------------|
|----------------------------|

The last verse goes...
|--7-7-7--------5-5-5--------3-3-3----------------------3-5-3-5-7----7-7-8-7-8---7-3-|
|--------5-----------3------------1-5------5-5-7-5-7-7-----------------------------3-|
|------------------------------------------------------------------------------------|
|------------------------------------------------------------------------------------|
|------------------------------------------------------------------------------------|
|------------------------------------------------------------------------------------|
Tap to rate this tab
# A B C D E F G H I J K L M N O P Q R S T U V W X Y Z