Song name
# A B C D E F G H I J K L M N O P Q R S T U V W X Y Z

Sound Of Music - Do A Deer tab

-------------------------------------------------------------------------------
			     Doe a Deer - Sound of Music
-------------------------------------------------------------------------------
Tabbed by: Kelly
Email: k311y671@aol.com

Tuning: Standard
    Do                            Re                             Mi
e|----------------------------------------------------------------------1------|
B|--------1---3~-------3-----3~----1~---3--4--4----3--1---4~-----3~--4---------|
G|--3~--------------3------3---------------------------------------------------|
D|-----------------------------------------------------------------------------|
A|-----------------------------------------------------------------------------|
E|-----------------------------------------------------------------------------|
                  Fa                            So
e|------1-----1~--------1--3---3--1------3~------1~------------------3~------|
B|---3-----3-------4~-----------------4--------------------1--3--4-----------|
G|----------------------------------------------------3--3-------------------|
D|---------------------------------------------------------------------------|
A|---------------------------------------------------------------------------|
E|---------------------------------------------------------------------------|
    La                       Ti                         That will bring...
e|--3~---------1-1--3--5~----5~----1-1--3--3--5---6~-----6----5----3---------|
B|-------4--4----------------------------------------------------------4-----|
G|---------------------------------------------------------------------------|
D|---------------------------------------------------------------------------|
A|---------------------------------------------------------------------------|
E|---------------------------------------------------------------------------|
    back to   Do   oh  oh  oh   Do
e|---5----1----6---1---------------------------------------------------------|
B|---------------------3----1------------------------------------------------|
G|-------------------------------3-------------------------------------------|
D|---------------------------------------------------------------------------|
A|---------------------------------------------------------------------------|
E|---------------------------------------------------------------------------|

And you basically just repeat it a bajillion times. If you see any major errors, e-mail 
if it's really THAT important.

| /  slide up
| \  slide down
| h  hammer-on
| p  pull-off
| ~  vibrato
| +  harmonic
| x  Mute note
===============================================================================
Tap to rate this tab
# A B C D E F G H I J K L M N O P Q R S T U V W X Y Z