Song name
# A B C D E F G H I J K L M N O P Q R S T U V W X Y Z

Sound Tribe Sector 9 - Aimlessly tab

STS9 blows my mind away..... nuff said =)
I'm actually shocked there's no funky sound tribe guitar tabs up here.
well anyways enjoy... 




e|--------------------------------------------|
B|--------------------------------------------|
G|----------4------2--------------------------|
D|--2----5-----7------4h5p4--4---2h4--0-------|
A|--------------------------------------------|
E|--------------------------------------------|

  
e|-----------------------------------------------------------|
B|-----------------------------------------------------------|
G|-----------16~--------14~----------------------------------|
D|--14~----17~-----19~-------16h17p16----16~----16p14/12~----|
A|-----------------------------------------------------------|
E|-----------------------------------------------------------|           

Tap to rate this tab
# A B C D E F G H I J K L M N O P Q R S T U V W X Y Z