Song name
# A B C D E F G H I J K L M N O P Q R S T U V W X Y Z

Sound Tribe Sector 9 - Mischief Of A Sleep Walker tab

lots of effects.
whatever sounds good to you. i guess.

main riff one
e-------------------------------------|
b-------------------------------------|
g-------7-10--8-7-------7-10--8p7-----|
d-----8---------------8----------8----|
a--10--------------10-----------------|
E-------------------------------------|

e-------------------------------------|
b--------------------------------10---|
g-------7-10--8-7-------7-10--8p7-----|
d-----8---------------8---------------|
a--10--------------10-----------------|
E-------------------------------------|

repeat any number of times
the transitions to the next part goes as follows

transition from main riff to secondary riff
e-------------------------------------|
b-------------------------------------|
g-------7-10--8-7-------7-10--8p7-----|
d-----8---------------8----------8----|
a--10--------------10-----------------|
E-------------------------------------|

e-------------------------------------|
b-------------------------------------|
g-------7-10--8-7-------7-10--8p7~----| (hold for a while)
d-----8---------------8---------------|
a--10--------------10-----------------|
E-------------------------------------|

zach brings the beat back and

secondary riff (not exact amount of repetitions)

e----------------------------|
b------------7------------7--|
g--------7-8----------7-8----|
d----------------------------|
a-10-10~-------10-10~--------|
E----------------------------|

e--------------------------------|
b--------------------------------|
g--------7-8-5-7--------7-8-5-7--|
d--------------------------------|
a-10-10~---------10-10~----------|
E--------------------------------|

build up
e--------------------------------|
b--------------------------------|
g--------7-8-5-7--5h7-8-5h7------|
d--------------------------------|
a-10-10~-------------------------|
E--------------------------------|

e--------------------------------|
b---------------------8----------|
g--------7-8-5-7--5h7---5h7------|
d--------------------------------|
a-10-10~-------------------------|
E--------------------------------|

back into main riff / jam / whatever sound tribe wants to do


its hard for a precise tab on this song hunter really changes up this song so there is a 
of improvisation i based this tab off of some of the live shows that i have not the 
recording.
Tap to rate this tab
# A B C D E F G H I J K L M N O P Q R S T U V W X Y Z