Song name
# A B C D E F G H I J K L M N O P Q R S T U V W X Y Z

Sound Tribe Sector 9 - Circus tab

-------------------------------------------------------------------------------
                             CIRCUS - STS9
-------------------------------------------------------------------------------
Tabbed by: Matt 
E-mail: mah3eg@gmail.com

Tuning: Standard

e|---------------------------------------------------------------------------|
B|-------11-------14-11----14-11----------14----------11-11----11------------|
G|-11-13----13-11-------11-------11-13-11----11-13-11-------13----13-11------|
D|---------------------------------------------------------------------------|
A|---------------------------------------------------------------------------|
E|---------------------------------------------------------------------------|

e|---------------------------------------------------------------------------|
B|-------11-------14-------------------11 11 11 11 11 11----11---------------|
G|-11-13----13-11----11-13~~~----11-13-------------------13----13-11---------|
D|----------------------------13---------------------------------------------|
A|---------------------------------------------------------------------------|
E|---------------------------------------------------------------------------|
 

************************************

| /   slide up
| \   slide down
| h   hammer-on
| p   pull-off
| ~   vibrato
| +   harmonic
| x   Mute note
| b   Bend
| pb  Pre-bend
| br  Bend release
| pbr Pre-bend release
| brb Bend release bend

************************************
Tap to rate this tab
# A B C D E F G H I J K L M N O P Q R S T U V W X Y Z