Song name
# A B C D E F G H I J K L M N O P Q R S T U V W X Y Z

Sounders - 1000 Miles Ending tab

Song: 1000 Miles
Band: The Sounders (hmong band)
Tabbed by: Bouafue Thao

This is the solo part for the ending. Played using all the strings instead of focusing 
only A D and G strings. Critiques and comments welcomed.

e--------------------------------------------------------------------------|
B--------------------------0-----------------------------1-3-5-5--5-3h1-1--|
G----0--0--0--0-----0--0--0-0-0-2h4-5--2--0-----0--0-2-4-------------------|
D---2--2--2--2-----2--2--2------------------2-3----------------------------|
A--3--3--3--3-----3--3--3--------------------------------------------------|
E--------------------------------------------------------------------------|

e-----------------------------------------------------------------------|
B---1-1---1---5-3-1-3-1-0-1-0---0----------------1----1-3h5h3-3---------|
G-2-----2---2-----------------2---2---2-----2--2--2-2-------------------|
D---------------------------------------2h5-----------------------------|
A-----------------------------------------------------------------------|
E-----------------------------------------------------------------------|

e--12t13t12t13t12t13t12t13-15-----------|
B--13-----------------------------------|
G---------------------------------------|
D---------------------------------------|
A---------------------------------------|
E---------------------------------------|

That shouldn't be too hard. If it gets too easy, try doing it by using just the other 
(D, A, G).. Might sound better maybe? I don't know maybe that's how its really played by. PEACE!
Tap to rate this tab
# A B C D E F G H I J K L M N O P Q R S T U V W X Y Z