Song name
# A B C D E F G H I J K L M N O P Q R S T U V W X Y Z

Soundgarden - Come Together tab

Help us improve GuitareTab! Take a short survey!
Soundgarden - Come Together (Beatles Cover)
Album: Hands All Over Single
Drop D Tuning

-=Intro=-

e|-----------------------------------------------------|
B|-----------------------------------------------------|
G|-----------------------------------------------------|
D|---2-2-------2-2-------2-2-------2-2------15/--------|
A|---2-2-------2-2-------2-2-------2-2------15/--------|
D|---2-2-------2-2-------2-2-------2-2------15/--------|


-=Verse=-

Play Twice

e|------------2b------|
B|--------------------|
G|--------/4----------|
D|--2-2---------------|
A|--2-2---------------|
D|--2-2---------------|x10 

e|-------------------------------------------------------------------|
B|-------------------------------------------------------------------|
G|-------------------------------------------------------------------|
D|-2-2-2-2-7-9--(9)-----2--2--5-7--(7)-----5b--5b--5b--5b--5b--------|
A|-2-2-2-2-7-9--(9)-----2--2--5-7--(7)-------------------------------|
D|-2-2-2-2-7-9--(9)-----2--2--5-7--(7)-------------------------------|


-=Chorus=-

e|-------------------------------------------------------------------|
B|-------------------------------------------------------------------|
G|-------------------------------------------------------------------|
D|--7-7-(7)----7/----0h2----(2)----/4----4h7--(7)----7/----0h2-------|
A|-------------------------------------------------------------------|
D|-------------------------------------------------------------------|


-=Verse 2=-

e|------------2b------|
B|--------------------|
G|--------/4----------|
D|--2-2---------------|
A|--2-2---------------|
D|--2-2---------------|x10 

e|-------------------------------------------------------------------|
B|-------------------------------------------------------------------|
G|-------------------------------------------------------------------|
D|-2-2-2-2-7-9--(9)-----2--2--5-7--(7)-----5b--5b--5b--5b--5b--------|
A|-2-2-2-2-7-9--(9)-----2--2--5-7--(7)-------------------------------|
D|-2-2-2-2-7-9--(9)-----2--2--5-7--(7)-------------------------------|


-=Chorus=-

e|-------------------------------------------------------------------|
B|-------------------------------------------------------------------|
G|-------------------------------------------------------------------|
D|--7-7-(7)----7/----0h2----(2)----/4----4h7--(7)----7/----0h2-------|
A|-------------------------------------------------------------------|
D|-------------------------------------------------------------------|

e|-------------------------------------|
B|-------------------------------------|
G|-------------------------------------|
D|----/4----4h7--(7)----7/----0h2------|
A|-------------------------------------|
D|-------------------------------------|


-=Pre-Solo=-

e|-----------------------------|
B|-----------------------------|
G|-----------------------------|
D|--5-5-5-5-5-2-2-5--2--5--2---|
A|--5-5-5-5-5-2-2-5--2--5--2---|
D|--5-5-5-5-5-2-2-5--2--5--2---|x2
    * * * * * * * *  *  *  *

-=Solo=-

Working on it.


-=Verse 3=-

e|------------2b------|
B|--------------------|
G|--------/4----------|
D|--2-2---------------|
A|--2-2---------------|
D|--2-2---------------|x10 

e|-------------------------------------------------------------------|
B|-------------------------------------------------------------------|
G|-------------------------------------------------------------------|
D|-2-2-2-2-7-9--(9)-----2--2--5-7--(7)-----5b--5b--5b--5b--5b--------|
A|-2-2-2-2-7-9--(9)-----2--2--5-7--(7)-------------------------------|
D|-2-2-2-2-7-9--(9)-----2--2--5-7--(7)-------------------------------|


-=Chorus 2=-

e|-------------------------------------------------------------------|
B|-------------------------------------------------------------------|
G|-------------------------------------------------------------------|
D|--7-7-(7)----7/----0h2----(2)----/4----4h7--(7)----7/----0h2-------|
A|-------------------------------------------------------------------|
D|-------------------------------------------------------------------|

e|-------------------------------------|
B|-------------------------------------|
G|-------------------------------------|
D|----/4----4h7--(7)----7/----0h2------|
A|-------------------------------------|
D|-------------------------------------|


-=Outro=-

Working on it.
Related for Come Together tab