Song name
# A B C D E F G H I J K L M N O P Q R S T U V W X Y Z

Soundgarden - Head Down tab

Song: Head Down
Artist: Soundgarden
Tuning: Drop D: DADGBe.

If u struggle with drop D tuning E-mail me and I will send u a standard tuning version.
Here u go:

guitar symbols key:

~: bend string
^: wobble string
h: hammer-on
\: slide
( ): Let ring, e.g (10)

Intro:

e-------------------------|
B-------------------------|
G-------------------------|
D---5h7-8h7-5---5h7-8h7-5-|
A-------------------------|
D-------------------------|


Verse:
e---------------------------------------------------------------------------|
B---------------------------------------------------------------------------|
G---12-10--10-(10)-12~------------------------------------------------------|
D--------10-----------10^-(10)^--10-12--13-13-13-13\8-6-8-6-5---------------|
A---------------------------------------------------------------------------|
D---------------------------------------------------------------------------|

Chorus:
e---------------------------------------------------0000000-----------------|
B---------------------------------------------------1111111-----------------|
G---------------------------------------------------0000000-----------------|
D---3333333333-1111111111-0000000000-3333333333-5-6-2222222-----------------|
A---3333333333-1111111111-0000000000-3333333333-5-6-3333333-----------------|
D---3333333333-1111111111-0000000000-3333333333-5-6-------------------------|

That last C chord is strange cuz the bass goes lower but the guitar goes higher so it 
not not sound accurate when playing along but it'z the bass which goes really low.

After that go back to verse again:
e---------------------------------------------------------------------------|
B---------------------------------------------------------------------------|
G---12-10--10-(10)-12~------------------------------------------------------|
D--------10-----------10^-10-12-13-13-13-13\8-6-8-6-5-----------------------|
A---------------------------------------------------------------------------|
D---------------------------------------------------------------------------|

Back to chorus:
Then this bit:
e--------------------------------0000000000---------------------------------|
B--------------------------------1111111111---------------------------------|
G--------------------------------0000000000---------------------------------|
D---66666666-55555555-333333-2-1-2222222222---------------------------------|
A---66666666-55555555-333333-2-1-3333333333---------------------------------|
D---66666666-55555555-333333-2-1--------------------------------------------|


Then the bit after that.....
e---------------000000000000000---------------------------------------------|
B---------------111111111111111---------------------------------------------|
G---------------000000000000000---------------------------------------------|
D---1-2-3-4-5-6-222222222222222---------------------------------------------|
A---1-2-3-4-5-6-333333333333333---------------------------------------------|
D---1-2-3-4-5-6-------------------------------------------------------------|

then there is a short break after that:

e---------------------------------------------------------------------------|
B---------------------------------------------------------------------------|
G---10h12-10h12------12h10-12h10-----10h12-10h12-----12h10-12h10------------|
D--------------12(12)-----------10(10)----------12(12)----------12~12(12)---|
A---------------------------------------------------------------------------|
E---------------------------------------------------------------------------|

e---------------------------------------------------------------------------|
B---------------------------------------------------------------------------|
G---------------------------------------------------------------------------|
D---12~-10(10)--------------------------------------------------------------|
A---------------------------------------------------------------------------|
D---------------------------------------------------------------------------|

back to verse.
Then chorus again.
Then this bit again:

e----------------------------------000000000000000--------------------------|
B----------------------------------111111111111111--------------------------|
G----------------------------------000000000000000--------------------------|
D---66666666-55555555-33333333-2-1-222222222222222--------------------------|
A---66666666-55555555-33333333-2-1-333333333333333--------------------------|
D---66666666-55555555-33333333-2-1------------------------------------------|


e---------------------------------------------------------------------------|
B---------------------------------------------------------------------------|
G---------------------------------------------------------------------------|
D---5-6-8-8-8-8-8-6-5-5-5-5-5-6-8-8-8-8-8-6-5-------------------------------|
A---------------------------------------------------------------------------|
D---------------------------------------------------------------------------|

e----------------------------------------------------------------------------|
B----------------------------------------------------------------------------|
G----------------------------------------------------------------------------|
D---8h6\5-8~-6\5-------------------------------------------------------------|
A----------------------------------------------------------------------------|
D----------------------------------------------------------------------------|

Well There U hav it. Any comments my E-mail is at the top of page.

Hope u Enjoy
H.
Tap to rate this tab
 
# A B C D E F G H I J K L M N O P Q R S T U V W X Y Z