Guitaretab - guitar tabs
Song name
# A B C D E F G H I J K L M N O P Q R S T U V W X Y Z

Soundgarden - Hunted Down tab

-------------------------------------------------------------------------------
                           Hunted down - Soundgarden
-------------------------------------------------------------------------------

Tabbed by: brian_s
Email: branimir.sremec@kc.t-com.hr


INTRO:
e---------------------------------------------------------------------|
B---------------------------------------------------------------------|
G---------------------------------------------------------------------| play 8x
D---------------------------------------------------------------------|
A---------------------------------------------------------------------|
E---1--1-1----4-4-4-2----2-2-3-4-3-2----------------------------------|

e---------------------------------------------------------------------|
B---------------------------------------------------------------------|
G---------------------------------------------------------------------|
D---6-6-6-6-6-6-6-6-6-6--8-8-8-8---9-9-9-9----------------------------|
A---6-6-6-6-6-6-6-6-6-6--8-8-8-8---9-9-9-9----------------------------|
E---4-4-4-4-4-4-4-4-4-4--6-6-6-6---7-7-7-7----------------------------|


1st SOLO:
e---------------------------------------------------------------------|
B---------------------------------------------------------------------|
G-----3---3---3---3---3---3-----10b-10b-10b-10b-10b-10b-10b-10b-10b---|
D---2---2---2---2---2---2---------------------------------------------|
A---------------------------------------------------------------------|
E---------------------------------------------------------------------|

e---------------------------------------------------------------------|
B---17-17-17-17-17-17-17--15-15-15-15-15-15---------------------------|
G---------------------------------------------------------------------|
D---------------------------------------------------------------------|
A---------------------------------------------------------------------|
E---------------------------------------------------------------------|


VERSE:
e---------------------------------------------------------------------|
B---------------------------------------------------------------------|
G---------------------------------------------------------------------| play 8x
D---------------------------------------------------------------------|
A---------------------------------------------------------------------|
E---1--1-1----4-4-4-2----2-2-3-4-3-2----------------------------------|

[ Tab from: http://www.guitaretab.com/s/soundgarden/17948.html ]
CHORUS:
e---------------------------------------------------------------------|
B---------------------------------------------------------------------|
G---------------------------------------------------------------------|
D---6-6-6-6-6-6-6-6-6-6-6-6-6-6-6-6---8-8-8-8-8-8-8---9-9-9-9-9-9-9---|
A---6-6-6-6-6-6-6-6-6-6-6-6-6-6-6-6---8-8-8-8-8-8-8---9-9-9-9-9-9-9---|
E---4-4-4-4-4-4-4-4-4-4-4-4-4-4-4-4---6-6-6-6-6-6-6---7-7-7-7-7-7-7---|


2nd SOLO:
Just mash up something from the first solo (it's noise anyway)


VERSE:
e---------------------------------------------------------------------|
B---------------------------------------------------------------------|
G---------------------------------------------------------------------| play 8x
D---------------------------------------------------------------------|
A---------------------------------------------------------------------|
E---1--1-1----4-4-4-2----2-2-3-4-3-2----------------------------------|


CHORUS:
e---------------------------------------------------------------------|
B---------------------------------------------------------------------|
G---------------------------------------------------------------------|
D---6-6-6-6-6-6-6-6-6-6-6-6-6-6-6-6---8-8-8-8-8-8-8---9-9-9-9-9-9-9---|
A---6-6-6-6-6-6-6-6-6-6-6-6-6-6-6-6---8-8-8-8-8-8-8---9-9-9-9-9-9-9---|
E---4-4-4-4-4-4-4-4-4-4-4-4-4-4-4-4---6-6-6-6-6-6-6---7-7-7-7-7-7-7---|


VERSE:
e---------------------------------------------------------------------|
B---------------------------------------------------------------------|
G---------------------------------------------------------------------| play 4x
D---------------------------------------------------------------------|
A---------------------------------------------------------------------|
E---1--1-1----4-4-4-2----2-2-3-4-3-2----------------------------------|


CHORUS:
e---------------------------------------------------------------------|
B---------------------------------------------------------------------|
G---------------------------------------------------------------------|
D---6-6-6-6-6-6-6-6-6-6-6-6-6-6-6-6---8-8-8-8-8-8-8---9-9-9-9-9-9-9---|
A---6-6-6-6-6-6-6-6-6-6-6-6-6-6-6-6---8-8-8-8-8-8-8---9-9-9-9-9-9-9---|
E---4-4-4-4-4-4-4-4-4-4-4-4-4-4-4-4---6-6-6-6-6-6-6---7-7-7-7-7-7-7---|


OUTRO:
e---------------------------------------------------------------------|
B---------------------------------------------------------------------|
G---------------------------------------------------------------------| Play 6x
D---8--9----9--10-----8--9----9--10-9--8-----------------------------|
A---8--9----9--10-----8--9----9-10--9--8-----------------------------|
E---6--7----7--8------6--7----7--8---7--6-----------------------------|
Related for Hunted Down tab