Song name
# A B C D E F G H I J K L M N O P Q R S T U V W X Y Z

Soundgarden - Like Suicide tab

Soundgarden
Like Suicide

Intro Guitar 1 & (2)
e -----------|
b -------0-1-|
G -----2-----|
D -(0)-------|
A -----------|
E -----------|

1'st Verse Guitar (1) & 2
e --------------------------------------|
b --------------------------------------|
G --------------------------(0-4h5p4-0)-|
D --------------------------------------|
A -5-4-7-5-4h5p4-0-2h3p2----------------|
E -----------------------3~-------------|

Verse Ending Guitar 2
e -------|
b -------|
G -------|
D -3-5-5-|
A -3-5-5-|
E -1-3-3-|

2'nd Verse Guitar 1
e -2--
b ---3
G ----
D ----
A ----
E ----

2'nd Verse Guitar 2
e -------------------------------------|
b -------------------------------------|
G -----------5-5-4-2-----------5-5-4-2-|
D -4-5-7-5-4---------4-5-7-5-4---------|
A -------------------------------------|
E -------------------------------------|

e -----------------------------------|
b -----------------------------------|
G -----------5-4-2-5-4-2-0-----------|
D -4-5-7-5-4---------------4-2h4-4-4-|
A -----------------------------------|
E -----------------------------------|

Chorus Guitar 1 (Last Time Only)
e --------------------|
b --------------------|
G -7------------------|
D ---7-9-10-9-5-(10---|)
A --------------------|
E --------------------|

Chorus Guitar 2
e ----------------|
b ----------------|
G ----------5-7-7-|
D -3~-2~-3~-5-7-7-|
A ----------3-5-5-|
E ----------------|

3'rd Verse Guitar (1) & 2
e --------------------------------------|
b --------------------------------------|
G -7-6-9-7-6h7p6-2-4h5p4----(0-4h5p4-0)-|
D -----------------------5~-------------|
A --------------------------------------|
E --------------------------------------|

4'th Verse Guitar 1+2 (Last Time Only)
e ---------------------------------------------------------------|
b ---------------------------------------------------------------|
G -7--6--9--7------6/7\6-----4/5\4----------------5-7-7--(5-7-7)-|
D -7--6--9--7--12--6/7\6--7--4/5\4--3-5-5--3-5-5--5-7-7--(5-7-7)-|
A -5--4--7--5--12--4/5\4--7--2/3\2--3-5-5--3-5-5--3-5-5--(3-5-5)-|
E -------------10---------5---------1-3-3--1-3-3-----------------|

Bridge Guitar 1+2 (Last Time Only)
e -------------------------------------------------|
b -------------------------------------------------|
G -------------------------------------------------|
D --------10-7------10-----------------------------|
A -9-9-10------10-9----10-9-10-12-10-9-(9-9-7-7-5)-|
E -------------------------------------------------|

Solo Guitar 1 pt. 1
e ---------------------------|
b -7h8p7h8p7-8h10p8h10p8-8p7-|
G ---------------------------|
D ---------------------------|
A ---------------------------|
E ---------------------------|

pt. 2
e -8p7h8p7-5-8p7h8p7-5-8p7-|
b -------------------------|
G -------------------------|
D -------------------------|
A -------------------------|
E -------------------------|

pt. 3
e -7-8-10-7-8p7-|
b --------------|
G --------------|
D --------------|
A --------------|
E --------------|

Solo Guitar 2
e -------------------------------------------|
b -15^---------------------------------------|
G -----16^----7^----13^-11h12p11-14-19-14-12-|
D ---------4^----4^--------------------------|
A -------------------------------------------|
E -------------------------------------------|

e -----------------------------------------|
b -----------------------------------------|
G -12-12-12-10-10-9-9-5-5-7-7-7-7-7--7-5---|
D ---------------------------------------3-|
A -----------------------------------------|
E -----------------------------------------|

e -7-8-10-7-8p7-7-8-10-7-8p7-|
b ---------------------------|
G ---------------------------|
D ---------------------------|
A ---------------------------|
E ---------------------------|

e -5-3-----10^-14^-7-5---10^-7--|
b -----7h8-------------0--------|
G ------------------------------|
D ------------------------------|
A ------------------------------|
E ------------------------------|

e -7-5---7^-7--7-7-5-5-3-3-2-2-0-0-------|
b -----0---------------------------3-5-3-|
G ---------------------------------------|
D ---------------------------------------|
A ---------------------------------------|
E ---------------------------------------|

e ---------------7-10^-7-10^-7-10-10-10-10-10-10-10-10-|
b -5-5-3-5-5-5-3---------------------------------------|
G -----------------------------------------------------|
D -----------------------------------------------------|
A -----------------------------------------------------|
E -----------------------------------------------------|

e ----------------------------10-10-10-10-10-10-10-10-10-|
b -------------------------------------------------------|
G -------7^------------9^--------------------------------|
D -5h7-7----5-7-5h-7-7----5-7----------------------------|
A -------------------------------------------------------|
E -------------------------------------------------------|

Outro Guitar 1
e ----------------------------------------------------------|
b ----------------------------------------------------------|
G ---------------5-7-7--5-7-7-------------------------------|
D -3-5-5--3-5-5--5-7-7--5-7-7--2-4-4~--2-4-4~-2-4-4~-2-4-4~-|
A -3-5-5--3-5-5--3-5-5--3-5-5-------------------------------|
E -1-3-3--1-3-3---------------------------------------------|

Outro Guitar 2
e -----------------------------------------------------10--|
b -10-10-10-10-10-10-10-10--10-10-10-10-10-10-10-10-10-----|
G ---------------------------------------------------------|
D ---------------------------------------------------------|
A ---------------------------------------------------------|
E ---------------------------------------------------------|

Guitar 1
Intro X15
1'st Verse X1
Intro X3
1'st Verse X1
Intro X4
2'nd Verse X4
Intro X4
Chorus X6
3'rd Verse X1
Intro X4
2'nd Verse X4
Intro X4
Chorus X6
4'th Verse X3
Bridge X4
Solo pt 1 X8
     pt.2 X8
     pt.3 X6
Outro X1
Chorus X6

Guitar 2
Intro X4
1'st Verse X1
Verse Ending X1
1'st Verse X1
Verse Ending X1
2'nd Verse X1
Chorus X2
3'rd Verse X1
Verse Ending X1
2'nd Verse X1
Chorus X2
4'th Verse X3
Bridge X4
Solo
Outro X1
Chorus X2
Tap to rate this tab
# A B C D E F G H I J K L M N O P Q R S T U V W X Y Z