Song name
# A B C D E F G H I J K L M N O P Q R S T U V W X Y Z

Soundgarden - Loud Love tab

Introduction (with much feedback)
e-:--------------------------------------------------------------------------|
B-:----5----7----8----7----3----7----8----7----3----7----8----7----3----7----|
G-:--------------------------------------------------------------------------|
D-:--------------------------------------------------------------------------|
A-:--------------------------------------------------------------------------|
E-:--------------------------------------------------------------------------|

e-:-----------------|
B-:----8----7----5--|
G-:-----------------|
D-:-----------------|
A-:-----------------|
E-:-----------------|


Main Riff
e-:----------------------------------|
B-:----------------------------------|
G-:----------------------------------|
D-:-----5-----------------------5b---|
A-:---7-----5-7---4-7---5-7---7------|
E-:-0-----0-----0-----0-----0--------|


Guitar 2 Fill
e-:------------------------|
B-:------------------------|
G-:------------------------|
D-:----2----0----2----6----|
A-:------------------------|
E-:------------------------|


Refrain? (You can't resist the louder pull)
e-:---------------------------------|
B-:---------------------------------|
G-:---------------------------------|
D-:-7----5-7-10---7-5-7---5-7-7b----|
A-:-7----5-7-10---7-5-7---5-7-7b----|
E-:-5----3-5-8----5-3-5---3-5-5b----|


I haven't figured out the coda, but I believe the outro is this:
e-:--------------|
B-:--------------|
G-:--------------|
D-:--------------|
A-:--------------|
E-:--1--3--5--2--|
Tap to rate this tab
# A B C D E F G H I J K L M N O P Q R S T U V W X Y Z