Guitaretab - guitar tabs
Song name
# A B C D E F G H I J K L M N O P Q R S T U V W X Y Z

Soundgarden - The Day I Tried tab

#

Date: Wed, 24 Jul 1996 22:49:43 -0700
From: IHUC 
Subject: TAB: The Day I Tried To Live by Soundgarden


Here is an IMPROVED and COMPLETE tab for The Day I Tried to Live. Enjoy.


The Day I Tried To Live -- Soundgarden
From "Superunknown"
Tabbed by Jeeves (philipe@basix.com)

Intro, Guitar 1 (Slight Distortion)

e |-10-9-7-10\4-4-4/7-7---------------------------|
B |-----------------------------------------------|
G |-----------------------------------------------|
D |-----------------------------------------------|
A |-----------------------------------------------|
E |-----------------------------------------------|

Intro, Guitar 2 (Clear Tone)

Begin halfway through first cycle of guitar 1's riff.
Listen to the song to get the exact rhythm.

e |-10\4--7-9-9\7---------------------------------|
B |-----------------------------------------------|
G |-----------------------------------------------|
D |-----------------------------------------------|
A |-----------------------------------------------|
E |-----------------------------------------------|

after 2 cycles of guitar 1, do this instead:

e |-15\10--15\10-15\10-15\7-----------------------|
B |-----------------------------------------------|
G |-----------------------------------------------|
D |-----------------------------------------------|
A |-----------------------------------------------|
E |-----------------------------------------------|

Bass comes in here. This riff is doubled by one guitar 
when the vocals start.

e |-----------------------------------------------|
B |-----------------------------------------------|
G |-----------------------------------------------|
D |-----------------------------------------------|
A |-77777-765433333-3-2-00000---------------------|
E |---------------------------0-------------------|

Play the above riff until the vocal line before the
chorus, and then do:



e |-----------------7644444-----------------------|
B |-----------------7644444-----------------------|
G |-----------------8755555-----------------------|
D |-----------------9866666-----------------------|
A |-77777-765433333-9866666-----------------------|
E |-----------------7644444-----------------------|
   (...and watch the rolling heads)
	    

Now start playing bar chords on the twelfth fret,
loud and distorted.

e |-12-12-12-12-12--12-11-10-9--8--8--8--8--8-----|
B |-12-12-12-12-12--12-11-10-9--8--8--8--8--8-----|
G |-13-13-13-13-13--13-12-11-10-9--9--9--9--9-----|
D |-14-14-14-14-14--14-13-12-11-10-10-10-10-10----|
A |-14-14-14-14-14--14-13-12-11-10-10-10-10-10----|
E |-12-12-12-12-12--12-11-10-9--8--8--8--8--8-----|

e |-8--7-55555------------------------------------|
B |-8--7-55555------------------------------------|
G |-9--8-66666------------------------------------|
D |-10-9-77777------------------------------------|
A |-10-9-77777------------------------------------|
E |-8--7-55555------------------------------------|

Depending on which verse you are on, the above riff
will repeat either two or four times. 

Now, guitar one will play this:

e |-10-9-7-10\4-4-4-6-6---10-9-7-10\5-5-5-7-7-----|
B |-----------------------------------------------|
G |-----------------------------------------------|
D |-----------------------------------------------|
A |-----------------------------------------------|
E |-----------------------------------------------|

And guitar two will play this, rather quietly:

e |-7-7-7-7-8--8--8--8--8--12-12-12-12------------|
B |-7-7-7-7-8--8--8--8--8--12-12-12-12------------|
G |-8-8-8-8-9--9--9--9--9--13-13-13-13------------|
D |-9-9-9-9-10-10-10-10-10-14-14-14-14------------|
A |-9-9-9-9-10-10-10-10-10-14-14-14-14------------|
E |-7-7-7-7-8--8--8--8--8--12-12-12-12------------|          

e |-9--9--9--9--9---------------------------------|
B |-9--9--9--9--9---------------------------------|
G |-10-10-10-10-10--------------------------------|
D |-11-11-11-11-11--------------------------------|
A |-11-11-11-11-11--------------------------------|
E |-9--9--9--9--9---------------------------------|

Repeat twice (...one more time around might do it)


Then this little line, in the same style as the
one above (all the repeats of the first two
chords omitted for brevity):
	    
	    Guitar 1 joins here
	   v                           
e |-12--7--9--9--9--9--9----9--8--7-6-55555-5422222-|
B |-12--7--9--9--9--9--9----9--8--7-6-55555-5422222-|
G |-13--8--10-10-10-10-10---10-9--8-7-66666-6533333-|
D |-14--9--11-11-11-11-11---11-10-9-8-77777-7644444-|
A |-14--9--11-11-11-11-11---11-10-9-8-77777-7644444-|
E |-12--7--9--9--9--9--9----9--8--7-6-55555-5422222-|

Go back to the verse riff if you need to, or repeat
the above riff several times for the "I learned that
I was a liar..." part. There are a couple more appearances
of the intro line later in the song, but they are not hard
to figure out.

Questions, comments, or suggestions, 
try philipe@basix.com

-- Jeeves
[ Tab from: http://www.guitaretab.com/s/soundgarden/17982.html ]
Related for The Day I Tried tab
The Day I Tried chords by Soundgarden