Guitaretab - guitar tabs
Song name
# A B C D E F G H I J K L M N O P Q R S T U V W X Y Z

Soundgarden - Toy Box tab

----------------------------------------------------------|
----------------------------------------------------------|
----------------------------------------------------------|
-2--2-2h5p2-3--3-3h5p3--2--5-4-3--3-3h5p3-----------------|
-2--22------3--33-------2--5-4-3--33----------------------|
-2--2-------3--3--------2--5-4-3--3-----------------------|
[ Tab from: http://www.guitaretab.com/s/soundgarden/182851.html ]
---------------------------------------------------|
---------------------------------------------------|
---------------------------------------------------|
-2---3---2-/5-4-3----------------------------------|
-2---3---2-/5-4-3----------------------------------|
-2---3---2-/5-4-3----------------------------------|

-------------------------------------------------------------|
-------------------------------------------------------------|
--5---------5---------5---------------7~---7~---7~---7~------|
--5----4----5----4----5----4--3--2---07~--07~--07~--07~------|
--3----4----3----4----3----4--3--2---05~--05~--05~--05~------|
-------4---------4---------4--3--2---0----0----0----0--------|
Related for Toy Box tab
Advertisement will be closed in 10 seconds