Song name
# A B C D E F G H I J K L M N O P Q R S T U V W X Y Z

Soundgarden - Toy Box tab

I'm kind of new making tabs but that's how i hearing Soundgarden- toy box :)
intro
e|------------------------------------------------------------------------------|
B|------------------------------------------------------------------------------|
G|--------0-----0-------0---0---0-----------------------------------------------|
D|------2-----2--------2---2---2------------------------------------------------|
A|----2-----2---------2---2---2-------------------------------------------------|
E|--0------1-----3-2-1---0---1--0-3-2-1-----------------------------------------|


verse
e|--0--------------0------------0------------0------------------------------------|
B|--0--------------0------------0------------0------------------------------------|
G|--0---0----------0-0----------0--0---------0--0---------------------------------|
D|--2-- 2----------2-2----------2--2---------2--2---------------------------------|
A|--2---2----------2-2 -2-1-0---2--2--2--2---2--2---------------------------------|
E|--0---1---3-2-1--0-1-0--------0--1-3-2--1--0--1--3-2-1--------------------------|
chorus pretty much the same as the entire song nothing changes much.
Tap to rate this tab
# A B C D E F G H I J K L M N O P Q R S T U V W X Y Z