Soundgarden - Black Rain tab

So this is the new song by Soundgarden called Black Rain.

Tuning: DADGBe


Intro/Chorus
e ----------------------------------------------------------------|
B ----------------------------------------------------------------|
G ---7------------7-------------7---------------------------------|
D ---7--3---------7---0---------7---3------------5-3--------------|
A  --5--3---------5---0---------5---3---------------------5-4-----|
D ------3-------------0-------------3-----------------------------|


Verses (repeat as needed)
e ---------------------------------------|
B ---------------------------------------|
G ---------------------------------------|
D ---------------------------------------|
A  ---------------------------9b-8~------|
D -0---0-2h3-2p0-0-0---------------------|

e ---------------------------------------|
B ---------------------------------------|
G ---------------------------------------|
D ---------------------------------------|
A  ---------------------------8b-7~------|
D -0---0-2h3-2p0-0-0---------------------|


e ---------------------------------------|
B ---------------------------------------|
G ---------------------------------------|
D ---------------------------------------|
A  ---------------------------8b-5~------|
D -0---0-2h3-2p0-0-0---------------------|


e ---------------------------------------|
B ---------------------------------------|
G ---------------------------------------|
D -----------1---------------------------|
A  ----------1---------------------------|
D -0---0-2h3-1~--------------------------|

Pre- Chorus

e ---------------------------------|
B ---------------------------------|
G ---------------------------------|
D ---------------------------------|
A  --------------------------------|
D -0---0-3h6-5---8-----------------|

e ---------------------------------------|
B ---------------------------------------|
G ---------------------------------------|
D ---------------------------------------|
A  --------------------------------------|
D -0---0-3h5-3---6-----------------------|

SOLO

Not sure about this part but it sounds right
e ---------------------------------------------------------------------|
B ---------------------------------------------------------------------|
G ---------------------------------------------0h3h5---0h5h7-----------|
D -----------0h5h7-0h3h5----------0h5h7--------------------------------|
A  --0h5h7------------------0h5h7--------------------------------------|
D ---------------------------------------------------------------------|


This tab sounds right feel free to make corrections ,comment and rate it pls
Tap to rate this tab
 
# A B C D E F G H I J K L M N O P Q R S T U V W X Y Z