Song name
# A B C D E F G H I J K L M N O P Q R S T U V W X Y Z

Soundgarden - Live To Rise tab

Soundgarden - Live To Rise
From 'Avengers Assemble" Soundtrack
Tabbed by jjhand, with help from krok_pilgrim's tab
Standard Tuning

Note the changes I added, which were the best i could get by ear. 
Nice chords, and the sound is similar to their last album with acoustics 
and mildly distorted electrics (Blow up the Outside World). 
Please rate and comment.

Intro 0:00-0:09 (only guitar):
E|-----|-------------------------------|--------------------------------|
B|-----|-------------------------------|--------------------------------|
G|-----|-------------------------------|--------------------------------|
D|-----|-------------------------------|--------------------------------|
A|-----|----------------------10p9-----|------------------12---10p9-----|
E|-0-0-|-10--10-0--0-10-0-12p0----10p0-|-10--10-0--0-10-0----0-----10p0-|


|----------------------------------|
|----------------------------------|
|----------------------------------|
|----------------------------------|
|----------------------10h12-12-12-|
|-10--10-0--0-10-0-12--------------|



Drums/Bass Enter,


Riff 1 (0:09) - Both Guitars play this 2x
|-----------------------------|------------------------------|
|-----------------------------|------------------------------|
|-----------------------------|------------------------------|
|-----------------------------|------------------------------|
|--------------------10p9-----|----------------12---10p9-----|
|-10-10-0-0-10-0-12------10p0-|-10-10-0-0-10-0----0-----10p0-|



Verse 1 Chords:

  Em     C      G      A/C#
|-0------0------3-------0--------|
|-0------1------3-------5--------| 5th fret note
|-0------0------0-------x--------| is optional
|-2------2------0-------2--------|
|-2------3------2-------4--------|
|-0-------------3----------------|



Em                    C
What if all you understand,
     G                          A/C#
Could fit into the center of our hand,
Em                      C
Then you found it wasn't you,
    G                             A/C#
Who held the sum of everything you knew,


PRECHORUS:

Acoustic
  Am                    G
|-0-------------------|-3-------------|
|-1-------------------|-3-------------|
|-2-------------------|-0-------------|
|-2-------------------|-0-------------|
|-0-------------------|-2-------------|
|---------------------|-3-------------|
"We're insane but not alone,  You hold on and they're"


  Acoustic
   F    E5    D/F#
|--1--------------------------|
|--1-----------3--------------|
|--2-----------2--------------|
|--3----2------0--------------|
|--3----2------0--------------|
|--1----0------2--------------|
|
| Electric
|-----------------------------|
|--------------3--------------|
|-----2-----2-----------------|
|---3-----2-------------------|
|-----------------------------|
|-1-----0---------------------|

 "gone"






CHORUS (0:53) -

Dist Guitar
|------------------------|-------------------------|------------------------|
|------------------------|-------------------------|------------------------|
|-7/9-9-9--x-7---------7-|-7/9-9-9--x-7--4-4--4--7-|-7/9-9-9--x-7---------7-|
|-7/9-9-9--x-7--7-7--7-7-|-7/9-9-9--x-7--4-4--4--7-|-7/9-9-9--x-7--7-7--7-7-|
|-5/7-7-7--x-5--7-7--7-5-|-5/7-7-7--x-5--2-2--2--5-|-5/7-7-7--x-5--7-7--7-5-|
|---------------5-5--5---|-------------------------|---------------5-5--5---|
|
| Guitar 2 (w/ light dist, tremelo)
|------------------------|-------------------------|------------------------|
|------------------------|-------------------------|------------------------|
|---------------------0--|-------------------------|---------------------0--|
|------------------7-----|-------------------------|------------------7-----|
|---------------4--------|-------------------------|---------------4--------|
|------------------------|-------------------------|------------------------|
                 "Like the sun we will live to rise"

  Dist Gtr
|----------------------|----------------------|------------------------|
|----------------------|----------------------|-------------4--4--4----|
|-7/9-9-9--x-7--4-4----|-5---------5----------|-------------2--2--2--7-|
|-7/9-9-9--x-7--4-4----|-5---------5----------|-5--5--5--5--4--4--4--7-|
|-5/7-7-7--x-5--2-2----|-3---------3----------|-5--5--5--5--2--2--2--5-|
|----------------------|----------------------|-3--3--3--3-------------|
|
| Gtr 2
|----------------------|----------------0-----|------------------------|
|----------------------|----------------1-----|----------------------0-|
|----------------------|----------------0-----|----0--0-----------0----|
|----------------------|----------------2-----|-0--------------1-------|
|----------------------|----------------3-----|-------------2----------|
|----------------------|----------------------|------------------------|
"Like the sun we will live and die and then    ignite   again"



|------------------------|-----------------------|
|------------------------|-----------------------|
|-7/9-9-9--x-7---------7-|-5----------5----------|
|-7/9-9-9--x-7--7-7--7-7-|-5----------5----------|
|-5/7-7-7--x-5--7-7--7-5-|-3----------3----------|
|---------------5-5--5---|-------------------0-0-|
|
|------------------------|-----------------------|
|------------------------|------------0----------|
|---------------------0--|-------0---------------|
|------------------7-----|----2------------------|
|---------------4--------|-3---------------------|
|------------------------|-----------------------|
 "Like the sun we will live to rise             Again"





Play Riff 1




Verse 2 (1:24) - Play Same as Before

"What if the one thing that I missed,
 was everything I need to pass the test,
 And if I fail what happens then,
 Can I still count on you as a friend,
 We're insane but not alone,
 You hold on, And they're gone"







Play Prechorus and Chorus Again (1:55)

Chorus 2 Ending (2 guitars written for one)
|----------|------------|--------------|------------|--------------|
|----------|------------|--------------|------------|--------------|
|--8-------|-0----------|--------------|------------|--------------|
|--8-------|-2----------|-4-(feedback)-|------------|-4-(feedback)-|
|--6-------|-2----------|--------------|-7----------|-5------------|
|----------|-0----------|-0------------|-0----------|-0------------|

  "Again, Again (echoes)"

Note that the 4th fret note only has feedback, the other notes are 
from the other guitar part.





Bridge (2:35) - Guitar 1 Top, Guitar 2, bottom strings

|---0---2---3---5----|---0---2---3---5----|
|-3---3---3---3------|-3---3---3---3------|
|--------------------|--------------------|
|--------------------|--------------------|
|-3---3---3---3------|-3---3---3---3------|
|--------------------|--------------------|
  "Warm My Face,       Warm Your Face,"

|---0---2---3---5----|---0---2---3---5----|
|-3---3---3---3------|-3---3---3---3------|
|--------------------|--------------------|
|--------------------|--------------------|
|-0---0---0---0------|-0---0---0---0------|
|--------------------|--------------------|
  "Warm My Face,       Warm Your Face,"

|---0---2---3---5----|---0---2---3---5----|-4-------|
|-3---3---3---3------|-3---3---3---3------|---------|
|--------------------|--------------------|---------|
|-0---0---0---0------|-0---0---0---0------|---------|
|--------------------|--------------------|---------|
|--------------------|--------------------|-0-------|
  "Warm My Face,       Warm Your Face,"






Solo (2:55)
|---------------------------|----------------------------------|
|---------------------------|-/10~~~~----10h12~~---------------|
|-9~--------7h9-7~~~~~~~~~~-|----------12-------12h14p12-14p12~|
|---------------------------|----------------------------------|
|---------------------------|----------------------------------|
|---------------------------|----------------------------------|
|
|Rhythm
|-----------------------------|------------------------------|
|-----------------------------|------------------------------|
|-----------------------------|------------------------------|
|-----------------------------|------------------------------|
|--------------------10p9-----|----------------12---10p9-----|
|-10-10-0-0-10-0-12p0----12p0-|-10-10-0-0-10-0----0-----12p0-|


|------------------------------------|------------------------------|
|------------------------------------|-------------12TP---15---15b17|
|----------------------------------9-|-11h12-14TP-------------------|
|-12h14p12p11-11h12p11p9-9TP-11-12---|------------------------------|
|------------------------------------|------------------------------|
|------------------------------------|------------------------------|
|
|Rhythm
|---------------------------------|---------------------------------|
|---------------------------------|---------------------------------|
|---------------------------------|---------------------------------|
|---------------------------------|---------------------------------|
|------------------------10p9-----|---------------------10h12-12-12-|
|-10---10-0---0-10-0-12p0----12p0-|-10-10-0-0-10-0-12p0-------------|







Play Chorus as Solo Continues - (Timing of Lyrics is shown)


Solo Guitar (continue from above)
|--------------------------------------|---------------------|
|-15b17--15p12-------------------------|---------------------|
|-------------14p12p11-12-11h2p11------|---------------------|
|--------------------------------14p12-|-14~-----12----------|
|--------------------------------------|------------14----12-|
|--------------------------------------|---------------------|
                              "Like the sun we will live to rise"


|------------------------|---------------|-------------------------|
|------------------------|---------------|-------------------------|
|------------------------|------12~------|----------------------12-|
|-----------12-----12h14-|-14~--------14-|-12~~-12h14-14/16--12~~--|
|-14~~~~--14-------------|---------------|-------------------------|
|------------------------|---------------|-------------------------|
                 "Like the sun we will live and  die and then"


|--------------------|----------------------------------|
|---------12-12~\0---|----------------------------------|
|-14~----------------|---------12-----------------------|
|--------------------|-12h14-14--14-12------------------|
|--------------------|----------------14p12-14~~--------|
|--------------------|----------------------------------|
"ignite again                                  Like the"


|-------------------------|----------------------------------
|-------------------------|----------------------------------
|--------------------14~--|--16p14p12-14p12--12--------------
|-12h14~------------------|----------------14--14p12-14p12~~-
|-------12h14-12-12~------|----------------------------------
|-------------------------|----------------------------------
"sun we will live to rise                            


 ------------------|-------------------------|------------|---------------|
 ------------------|-------------------------|------------|-------10-10\0-|
 ------------------|------14--11-12p11h12----|---------12-|-12------------|
 11h12p11-10h11p10-|-9/-------------------14-|-14~~-------|---------------|
 ------------------|-------------------------|------------|---------------|
 ------------------|-------------------------|------------|---------------|
      "Like the sun we will live and  die and then         ignite again"




Ending (Rhythm Chords above solo):

  E5  D5  A5           C5              Eb5   
|--------------------|---------------|--------------------|
|--------------------|---------------|-------8-10b~~~-----|  feedback at end
|-9b11r9---7--9~~----|-9-7h9p7~~~----|-7h9-9--------------|
|--------------------|---------------|--------------------|
|--------------------|---------------|--------------------|
|--------------------|---------------|--------------------|
"Like the sun we will live to rise    again



Rhythm ending chord (slide to 11th fret on A string)
|--------------------|
|--------------------|
|--------------------|
|--------------------|
|--11----------------|
|--0-----------------|





Key:

| /   slide up
| \   slide down
| h   hammer-on
| p   pull-off
| x   Mute note
| b   bend note
| r   release bend
| ~   vibrato
| TP  Tremelo Picking (pick note repeatedly)
Tap to rate this tab
 
# A B C D E F G H I J K L M N O P Q R S T U V W X Y Z