Song name
# A B C D E F G H I J K L M N O P Q R S T U V W X Y Z

Soundgarden - Non-state Actor tab

Non-State Actor

Soundgarden

Tabbed by: Brownbear93

Standard


Main Riff:
|-------------------------------------------------|
|-------------------------------------------------|
|-------------------------------------------------|x6
|-------------------------------------------------|
|--------10-------12-------------9-------10-------|
|--10h12----12-10----10-12-12-12---10-10----0-0---|



Verse:
                                        
|--------------------------------------|--------------------------------------------|
|--------------------------------------|--------------------------------------------|
|--------------------------------------|--------------------------------------------|x2
|--------------------------------------|--------------------------------------------|
|------------12------------------------|-------------12-----------------------------|
|---10h12p10----10---10--10--10--9-9-9-|-0--10h12p10----10---10--10--10--10-10-10-0-|


|--------------------------------------|--------------------------------------------|
|--------------------------------------|--------------------------------------------|
|--------------------------------------|--------------------------------------------|
|--------------------------------------|--------------------------------------------|
|------------12------------------------|-------------12-----------------------------|
|---10h12p10----10---10--10--10--9-9-9-|-0--10h12p10----10---10--10--10--10-10-10/--|

|------------------------------------------|
|------------------------------------------|
|------------------------------------------|
|------------------------------------------|
|-----/12----/14---------------------------|
|--7------10-----12---12--12-10--10--10--0-|

|--------------------------------------|--------------------------------------------|
|--------------------------------------|--------------------------------------------|
|--------------------------------------|--------------------------------------------|x3
|--------------------------------------|--------------------------------------------|
|------------12------------------------|-------------12-----------------------------|
|---10h12p10----10---10--10--10--9-9-9-|-0--10h12p10----10---10--10--10--10-10-10-0-|


Chorus:
G1                                           x4                      x3
|-----------------------------------------------|---------------------|
|-----------------------------------------------|---------------------|
|--9----9-9-9\7--7-7-7\-------------------------|---------------------|
|--9----9-9-9\7--7-7-7\--7--7-7-----------------|---------------------|
|--7----7-7-7\5--5-5-5\--7--7-7--9-------10-----|--9-------10---------|
|------------------------5--5-5----10-10----0-0-|----10-10----0-0-----|

G2
|---------0-------|
|---------3-------|x3
|------4----------|
|---2-------------|
|-----------------|
|-----------------|


Main Riff x4

G2
|---------------------|
|----(12~)------------|
|---------------------|
|---------------------|
|---------------------|
|---------------------|


Verse 

Chorus

2nd Chorus Ending:
G2
|------------------------------------------|
|------------------------------------------|
|---9-9\--------12-12\--------7-7\---------|x4
|---9-9\--------12-12\--------7-7\---------|
|---7-7\--------10-10\--------5-5\---------|
|------------------------------------------|


Bridge:
I honestly don't know whats going on in this part...all i know is these are the notes

|---(19)------(20)----------------------------------------------------|
|--------(20)-----------(15)----------(19)----------------(20)--------|
|---------------------------------------------------------------------|
|---------------------------------------------------------------------|
|---------------------------------------------------------------------|
|---------------------------------------------------------------------|


|-------------------------------------------------------------------------------------|
|-----------------------------------------/12-12-12-12-12-12-12-12-15-15-15-12-12-12--|
|--/9-9-9/13-13-13-13-13-13\11-11-11\9-9----------------------------------------------|
|-------------------------------------------------------------------------------------|
|-------------------------------------------------------------------------------------|
|-------------------------------------------------------------------------------------|

|-----------------------------------------------------------------|
|-----------------------------------------------------------------|
|--9-9-9-9-9-9-9-9-9-9-9-9-9-9-9-9-9-9-9-9-9-9-9-9-9--/13-13------|
|-----------------------------------------------------------------|
|-----------------------------------------------------------------|
|-----------------------------------------------------------------|


Chorus

G2
|------------------------------------|
|--15-----------------15--------11---|
|--14b----------------17b-------13b--|
|------------------------------------|
|------------------------------------|
|------------------------------------|

End solo:
|------------------------------------------------------------------------------------|
|-15b-12-12-15p12----12-15p12----12--------------------------------------------------|
|-----------------14----------14----14p12----14b--12-14p12---------------------------|
|-----------------------------------------14---------------14-12-14-------12/14-14~--|
|-------------------------------------------------------------------12h14------------|
|------------------------------------------------------------------------------------|

************************************

| /   slide up
| \   slide down
| h   hammer-on
| p   pull-off
| ~   vibrato
| +   harmonic
| x   Mute note
| b   Bend
| pb  Pre-bend
| br  Bend release
| pbr Pre-bend release
| brb Bend release bend

************************************
Tap to rate this tab
# A B C D E F G H I J K L M N O P Q R S T U V W X Y Z