Song name
# A B C D E F G H I J K L M N O P Q R S T U V W X Y Z

Soundgarden - Eyelids Mouth tab

Eyelid's Mouth

Soundgarden 

Tabbed by:Brownbear93

Standard


Verse:  
                     x2
|----------------------|--------------------|
|----------------------|--------------------|
|-------8---6----------|--------------------| x2
|---6h8---6------6h8~--|--6---6-5-4~--------|
|--------------6-------|--------------------|
|----------------------|--------------------|

                      x2
|----------------------|----------------------------------------|
|----------------------|----------------------------------------|
|-------8---6----------|--6--------------------------4-4--------|
|---6h8---6------6h8~--|--6---6-5-4~-----------------4-4--------|
|--------------6-------|---------------7/9-7/9\7-6---2-2--------|
|----------------------|----------------------------------------|



Chorus:
                       x3
|------------------------|--------------------|
|------------------------|--------------------|
|------------------------|--8---8---8-8-------| x3
|-------8----------------|--8---8---8-8-------|
|------------------------|--6---6---6-6-------|
|---/6------4--4/6\4--2--|--------------------|


G2:
               x3
|-----------------|--------|
|-----------------|--------|
|--6/8\6--8br--6~-|--------|
|-----------------|--8~----|
|-----------------|--------|
|-----------------|--------|



2nd Verse:
                      x2
|----------------------|----------------------------------------|
|----------------------|----------------------------------------|
|-------8---6----------|--6--------------------------4-4--------|
|---6h8---6------6h8~--|--6---6-5-4~-----------------4-4--------|
|--------------6-------|---------------7/9-7/9\7-6---2-2--------|
|----------------------|----------------------------------------|


2nd Chorus:
                       x3
|------------------------|--------------------|
|------------------------|--------------------|
|------------------------|--8---8---8-8-------| x4
|-------8----------------|--8---8---8-8-------|
|------------------------|--6---6---6-6-------|
|---/6------4--4/6\4--2--|--------------------|


G2:
               x3
|-----------------|--------|
|-----------------|--------|
|--6/8\6--8br--6~-|--------| x2
|-----------------|--8~----|
|-----------------|--------|
|-----------------|--------|

|----------------------------------------------------------|
|----------------------------------------------------------|
|--10br--8--6-8-8------10br--8--6-8-----10br--8--6-8-8-----| x2
|-----------------8~----------------8~-----------------8~--|
|----------------------------------------------------------|
|----------------------------------------------------------|



Solo Backing:
|-----------------------------|
|-----------------------------|
|-----------------------------|
|-----------------------------|
|-----------------------------|
|---6-6-6--6--6-6-6-6--4/6-9--|

The solo is way beyond me. The song is in the key of A# if that helps



************************************

| /   slide up
| \   slide down
| h   hammer-on
| p   pull-off
| ~   vibrato
| +   harmonic
| x   Mute note
| b   Bend
| pb  Pre-bend
| br  Bend release
| pbr Pre-bend release
| brb Bend release bend

************************************
Tap to rate this tab
# A B C D E F G H I J K L M N O P Q R S T U V W X Y Z