Song name
# A B C D E F G H I J K L M N O P Q R S T U V W X Y Z

Soundgarden - Taree tab

Taree
Soundgarden

h=hammer
p=pull-off
/=slide up
\=slide down

Tabbed by: Jaytee805

Tuning: DADGBE

E---------------------------|
B---------------------------|
G---------------------------|
D---3/5--8-8p5---3/5-5------|
A---3/5----------3/5-5------|
D---3/5----------3/5-5------|

E------------------------------------|
B------------------------------------|
G------------------------------------|
D---5--8----------8-------3-----3----|
A---5----8/10\8-----8\5------5-------|
D---5-----------5-------3--3---3-----|
Tap to rate this tab
# A B C D E F G H I J K L M N O P Q R S T U V W X Y Z