Song name
# A B C D E F G H I J K L M N O P Q R S T U V W X Y Z

Soundgarden - Spoonman tab

Solo

-(10)-----------10h13-13brfull-13p10-13-10-----------------------------|
-(13)--------------------------------------13-10h13p10h13p10-----------|
-------------------------------------------------------------12-10h12p-|
-----------------------------------------------------------------------|
-----------------------------------------------------------------------|
-----------------------------------------------------------------------|

---------------------------------------------------------------|
----------------------13----13----13----13----13---------------|
-p10----10-10-12bfull----12----12----12----12----12-12-r-12-10-|
-----12--------------------------------------------------------|
---------------------------------------------------------------|
---------------------------------------------------------------|

---------------------------------------------------------------------------|
---------------------------------------------------------------------------|
-12-10-10------------------------------------------------------------------|
-----------------------12-12-10-12-12-10-------10-10-12bfull-(12)-(12)---r-|
-----------------------------------------12-12-----------------------------|
---------------------------------------------------------------------------|

---------------------------------------------------------|
---------------------------------------------------------|
-------10-10-12bfull-(12)----rb--rb---r-12-12-10-10-12---|b
-12-12---------------------------------------------------|
---------------------------------------------------------|
---------------------------------------------------------|

----------13------------13--------------13bfull---13p10--|
------13--13bfull----------------------------------------|
-(12)----------------------------------(13)b1/2----------|
---------------------------------------------------------|
---------------------------------------------------------|
---------------------------------------------------------|

-13p10----------------------------------------------------------------------|
-------13-13p10----10-13p10-10----------------------------------------------|
----------------12-------------12p10-12p10-12-12brfull-(12)-b-------(12)----|
----------------------------------------------------------------------------|
----------------------------------------------------------------------------|
----------------------------------------------------------------------------|

---------------------------------------------------------------|
---------------------------------------------------------------|
-4/7/14-14-14-14-12p11-14-14p12p11h14-14p12p11-----------------|
------------------------------------------------12-10----------|
---------------------------------------------------------------|
---------------------------------------------------------------|

---------------------------10----------------------------------------|
------12b1/2-13------13-------13-(13)b2--(13)-r(13)------------------|
-(10)--------12bfull-12-r--------------------------------------------|
---------------------------------------------------------------------|
---------------------------------------------------------------------|
---------------------------------------------------------------------|
Tap to rate this tab
# A B C D E F G H I J K L M N O P Q R S T U V W X Y Z