Song name
# A B C D E F G H I J K L M N O P Q R S T U V W X Y Z

Soundgarden - Head Injury tab

-------------------------------------------------------------------------------
                             HEAD INJURY - Soundgarden
-------------------------------------------------------------------------------
Tabbed by: Rory Jackson
E-mail: rj--13@hotmail.com

Tuning: Standard

Verse                                            x4
e||----------------------------------------------||
B||o--------------------------------------------o||
G||----------------------------------------------||
D||----------------------------------------------||
A||o--------------------------------------------o||
E||--5h6-6-5h6-6-5h6-5h6-5h6-0-------------------||

Chorus                                x7
e||-----------------------------------||
B||o---------------------------------o||
G||-----------------------------------||
D||-----------------------------------||
A||o---------------------------------o||
E||--6-3-3-3-6-3-3-6-3-3-6-3-3h4-3h4--||

E|-----------------------------------------|
B|-----------------------------------------|
G|-----------------------------------------|
D|-----------------------------------------|
A|-------------------------------3-5----3--|
E|-6-3-3-3-6-3-3-6-3-3-6-3-3-5-6-----6-----|

Just before the 3rd chorus            x8
e||-----------------------------------||
B||o---------------------------------o||
G||-----------------------------------||
D||-----------------------------------||
A||o---------------------------------o||
E||--6-3-3-3-6-3-3-6-3-3-6-3-3h4-3h4--||
PM   . . . . . . . . . . . . . . . .

Outro                                     x7
e|---||-----------------------------------||
B|---||o---------------------------------o||
G|-6-||-----------------------------------||
D|-6-||----------------------------7------||
A|-4-||o-5h6-6-5h6-6-5h6-6-5h6-6-5---5-5-o||
E|---||-----------------------------------||

e|-----------------------------------------|----|
B|-----------------------------------------|----|
G|-----------------------------------------|-6/-|
D|-----------------------------------------|-7/-|
A|-5h6-6-5h6-6-5h6-6-5h6-6-------3-5----3--|-7/-|
E|-------------------------3-5-6-----6-----|-5/-|


************************************

| /   slide up
| \   slide down
| h   hammer-on
| p   pull-off
| ~   vibrato
| +   harmonic
| x   Mute note
| b   Bend
| pb  Pre-bend
| br  Bend release
| pbr Pre-bend release
| brb Bend release bend

************************************
Tap to rate this tab
 
# A B C D E F G H I J K L M N O P Q R S T U V W X Y Z