Song name
# A B C D E F G H I J K L M N O P Q R S T U V W X Y Z

Soundgarden - Halfway There tab

SOUNDGARDEN - HALFWAY THERE
Listen for the timing
Standard Tuning

iNTRO
E--1---------4-|
B--1---------4-|
G--2---------5-|
D--3----7----6-|
A--3----5----6-|
E--1---------4-|

I woke up with my feet nailed down
and my head moving the speed of sound

E------------0------4-----------------------------|
B--5---------1---0--4----------5------------------|
G--5----5----2---4--5----7-----5------5-----------|
D--5----3----2---0--6----6-----5------3-----------|
A--3----3----0---2--6----5-----3------3-----------|
E-------4--------4--4----4------------4-----------|
Had a dream I was caught in a maze
And I couldn't find my way back out

E------------0------4----------0------0-----------|
B--5---------1---0--4----------0------0-----------|
G--5----5----2---4--5----7-----1------1-----------|
D--5----3----2---0--6----6-----2------0-----------|
A--3----3----0---2--6----5-----2------2-----------|
E-------4--------4--4----4-----0------0-----------|

Some were born to move mountains around
And some to rot away in jail
I get an itch and when I am scratching
Everything can go to hell


And how far is halfway there?
I didn't see you on the trail
Did almost become good enough?
Should a good life be so hard won?
E--1----------------------------|
B--1-----------5----1-----------|
G--2-----5-----5----3-----------| X3
D--3-----3-----5----2-----------|
A--3-----3-----3----1-----------|
E--1-----4----------------------|

Is that what our dreams have become?
E--0----------------------------|
B--1-----1-----1----------------|
G--2-----0-----2----------------|
D--2-----0-----0----------------|
A--0-----0-----0----------------|
E--------3-----2----------------|

That is the Rythum I gathered..
ENJOY..
From JAGO
Tap to rate this tab
# A B C D E F G H I J K L M N O P Q R S T U V W X Y Z