Guitaretab - guitar tabs
Song name
# A B C D E F G H I J K L M N O P Q R S T U V W X Y Z

Soundgarden - Bleed Together tab

Bleed Together
Tuning (low to high): EADGBE

2X Rhy Fig 1  with  1X Riff A
   1   2   3   4   5   6   7   8   1   2   3   4   5   6   7   8
E------------------------------------------------------------------|
B------------------------------------------------------------------|
G--------------------------------6-----6---6-6-6-6-6-6-6-6-6-6-6-6-|
D--2-----------------------------6-----6---6-6-6-6-6-6-6-6-6-6-6-6-|
A--2-----------------------5h7---4-----4---4-4-4-4-4-4-4-4-4-4-4-4-|
E--0-------------------3/6-----0-----------------------------------|

  Riff A
     1   2   3   4   5   6   7   8   1   2   3   4   5   6   7   8
  E-----------------------------------------------------------------|
  B--17--------------\-----------------------18---------------------|
  G--19b21-----------\-------------------16-------------------------|
  D-----------------------------------------------------------------|
  A-----------------------------------------------------------------|
  E-----------------------------------------------------------------|

                                                       end of Riff A
    1   2   3   4   5   6   7   8   1   2   3   4   5   6   7   8
  E------------------------------------------------------------------|
  B------------------------------------------------------------------|
  G---------------------------------------6-------9-------9b-11r--9--|
  D------------------------------------------------------------------|
  A------------------------------------------------------------------|
  E------------------------------------------------------------------|


2X Rhy Fig 2:
 I know you're half awake
 And no hate and I know how to do it
 Hold the door and let it out
 Don't get it right or wrong
 No I don't get it
   1   2   3   4   5   6   7   8   1   2   3   4   5   6   7   8
E-----------------------------------------------------------------|
B-----------------------------------------------------------------|
G------------------9---------9-----7---7---7-7-7-7-----------9-9--|
D--9---9---9-9-9-9-9---9-9---9-----7---7---7-7-7-7---7-7-7---9-9--|
A--9---9---9-9-9-9-7---9-9---7-----5---5---5-5-5-5---7-7-7---7-7--|
E--7---7---7-7-7-7-----7-7-------------------------0h5-5-5--------|


                      end of Rhy Fig 2
   1   2   3    4   5   6    7     8
E-------------------------------------|
B-------------------------------------|
G--9---9---9h10---9-----9----9--9--9--|
D-10--10--------8------10---10-10-10--|
A-10--10---------------10---10-10-10--|
E--8---8----------------8----8--8-10--|


2X Rhy Fig 3:
 I know you're half afraid
 Half amazed, all insane
 I know it's all a cage
 And all the rage
 And all together gone
   1   2   3   4     5     6     7     8
E--------------------------------------------|
B--------------------------------------------|
G--9-9-----9-9------14-14--------14-14-------|
D--9-9-9-9-9-9-9-9--14-14--14-14-14-14-14-14-|
A--7-7-9-9-7-7-9-9--12-12--14-14-12-12-14-14-|
E------7-7-----7-7---------12-12-------12-12-|

                                end of Rhy Fig 3
   1     2     3     4     5     6     7     8
E-------------------------------------------------|
B-------------------------------------------------|
G--12-12-------12-12----------------7-------------|
D--12-12-12-12-12-12-12-12-7-----7--7-----7-------|
A--10-10-12-12-10-10-12-12-7-----7--5-----7-------|
E--------10-10-------10-10-5-----5--------5-------|


1X Riff B
   1   2   3   4   5   6   7   8
E---------------------------------|
B---------------------------------|
G--5---5---5-5-5-5-5---5-5---5-5--|
D--5---5---5-5-5-5-5---5-5---5-5--|
A--3---3---3-3-3-3-3---3-3---3-3--|
E---------------------------------|


2X Rhy Fig 2:
 You and me we're average
 With simple minds and lungs, eyes and skin
 You and me we're hopeless
 We're nowhere hearts so tear it out
 And open it


2X Rhy Fig 3:
 I'm giving blood tonight
 I don't care how, don't care why
 I'm giving blood tonight
 I'm feeling just like I could give it all

1X Riff C
   1   2   3   4   5   6   7   8   1   2   3   4   5   6   7   8
E-----------------------------------------------------------------|
B-----------------------------------------------------------------|
G--5---5---5-5-5-5-5---5-5---5-5---2---2---2-2-2-2-2---2-2---2-2--|
D--5---5---5-5-5-5-5---5-5---5-5---2---2---2-2-2-2-2---2-2---2-2--|
A--3---3---3-3-3-3-3---3-3---3-3---0---0---0-0-0-0-0---0-0---0-0--|
E-----------------------------------------------------------------|

1X Rhy Fig 4
 I know you're sick and alone
 Mothers and circles alike
   1   2   3   4   5   6   7   8   1   2   3   4   5   6   7   8
E------------------------------------------------------------------|
B------------------------------------------------------------------|
G--------------------------------6-----6---6-6-6-6-6-6-6-6-6-6-6-6-|
D--2-----------------------------6-----6---6-6-6-6-6-6-6-6-6-6-6-6-|
A--2-----------------------5h7---4-----4---4-4-4-4-4-4-4-4-4-4-4-4-|
E--0-------------------3/6-----0-----------------------------------|

                                                   end of Rhy Fig 4
   1   2   3   4   5   6     7   8   1   2   3   4   5   6   7   8
E---------------------------------------------------------------------|
B---------------------------------------------------------------------|
G----------------7-----------------5-----5---5-5-5-5-5-5-5-5-5-5-5-5--|
D--2-------------7-----------------5-----5---5-5-5-5-5-5-5-5-5-5-5-5--|
A--2-------------5-----5h7p5-------3-----3---3-3-3-3-3-3-3-3-3-3-3-3--|
E--0-----------0-------------7-6-5------------------------------------|

[ Tab from: http://www.guitaretab.com/s/soundgarden/83516.html ]
1X Rhy Fig 5:
 We can bleed together
 We can bleed together
 We can bleed We can bleed
 We can bleed together
   1   2   3   4   5   6   7   8   1   2   3   4   5   6   7   8
E------------------------------------------------------------------|
B------------------------------------------------------------------|
G--9---9---9-9-9-7---7---7---7---7-5---5---5-5-5-------------------|
D--9---9---9-9-9-7---7---7---7---7-5---5---5-5-5-5---5---5---5---5-|
A--7---7---7-7-7-5---5---5---5---5-3---3---3-3-3-5---5---5---5---5-|
E------------------------------------------------3---3---3---3---3-|

                                                   end of Rhy Fig 5
   1   2   3   4   5   6   7   8   1   2   3   4   5   6   7   8
E------------------------------------------------------------------|
B------------------------------------------------------------------|
G--9---9---9-9-9-7---7---7---7---7-5---5---5-5-5-------------------|
D--9---9---9-9-9-7---7---7---7---7-5---5---5-5-5-4---4---4---4---4-|
A--7---7---7-7-7-5---5---5---5---5-3---3---3-3-3-4---4---4---4---4-|
E------------------------------------------------2---2---2---2---2-|


1X Riff D:
     Oh Yeah
   1   2   3   4   5   6   7   8
E---------------------------------|
B---------------------------------|
G--7-----7------------------------|
D--5-----7------------------------|
A--------5------------------------|
E---------------------------------|


1X Riff E:
   1   2   3   4   5   6   7   8
E----------------------------------|
B----------------------------------|
G--6---6---4h6-x-x---6---6-4h6-6-6-|
D--6---6---4h6-x-x---6---6-4h6-6-6-|
A--4---4---4-4-x-x---4---4-4-4-4-4-|
E----------------------------------|


2X Rhy Fig 2:
 Show me and hand me down
 And hang me up along the golden (?)
 Show me and throw me out
 And hold me down, air me out
 And wind me


2X Rhy Fig 3:
 I know you're half afraid
 Half amazed, all insane
 I know it's all a cage
 And all the rage
 And all together gone


1X Rhy Fig 4
 I know you're sick and alone
 Mothers and circles alike

1X Rhy Fig 5:
 We can bleed together
 We can bleed together
 We can bleed We can bleed
 We can bleed together


2X Riff F
 Too altogether cool/cold
 Too altogether numb
   1   2   3   4   5   6   7   8   1   2   3   4   5   6   7   8
E-----------------------------------------------------------------|
B--1-------------------------------2------------------------------|
G--0-------------------------------2------------------------------|
D--2-------------------------------2------------------------------|
A--3--------------------------------------------------------------|
E-----------------------------------------------------------------|

4X Rhy Fig 6  with 1X Riff Bass
 I know you're sick and alone
 I know you're sick and alone
      1   2   3   4   5   6   7   8   1   2   3   4   5   6   7   8
  |E--------------------------------------------------2--------------|
  |B----------------------------------1---------------2--------------|
  |G--9---------------7---------------0---------------3--------------|
  |D--9---------------7---------------2---------------4--------------|
  |A--7---------------5---------------3---------------4--------------|
  |E--------------------------------------------------2--------------|
  |
  |   1   2   3   4   5   6   7   8   1   2   3   4   5   6   7   8
  |E------------------------------------------------------------------|
  |B------------------------------------------------------------------|
  |G------------------------------------------------------------------|
  |D------------------------------------------------------------------|
  |A--7-7-7-7-7-7-7-7-7-7-7-7-7-7-7-7-7-7-7-7-7-7-7-7-7-7-7-7-7-7-7-7-|
  |E------------------------------------------------------------------|

Riff Bass:

   1   2   3   4   5   6   7   8   1   2   3   4   5   6   7   8
G------------------------------------------------------------------|
D------------------7-7-7-7-7-7-7-7-----------------4-4-4-4-4-4-4-4-|
A--7-7-7-7-7-7-7-7-----------------3-3-3-3-3-3-3-3-----------------|
E------------------------------------------------------------------|

   1   2   3   4   5   6   7   8   1   2   3   4   5   6   7   8
G------------------------------------------------------------------|
D------------------5-5-5-5-5-5-5-5-----------------7-7-7-7-7-7-7-7-|
A--7-7-7-7-7-7-7-7-----------------3-3-3-3-3-3-3-3-----------------|
E------------------------------------------------------------------|

   1   2   3   4   5   6   7   8   1   2   3   4   5   6   7   8
G------------------7-7-7-7-7-7-5-7-4-4-4-4-4-4-4-4-5-5-5-5-5-5-5-5-|
D--7-7-7-7-7-7-7-7-------------------------------------------------|
A------------------------------------------------------------------|
E------------------------------------------------------------------|

                                                 end of Riff Bass
   1   2   3   4   5   6   7   8   1   2   3   4   5   6   7   8
G-----------------------------------------------------------------|
D------------------5-5-5-5-5-5-5-5-4-4-4-4-4-4-4-4----------------|
A--7-7-7-7-7-7-7-7---------------------------------7-7-7-7--------|
E----------------------------------------------------------3---0--|


4X Rhy Fig 7
 I know you're sick and alone
 Mothers and circles alike
 We can bleed together
 We can bleed together
 We can bleed together
 We can bleed together
   1   2   3   4   5   6   7   8   1   2   3   4   5   6   7   8
E------------------------------------------------------------------|
B------------------------------------------------------------------|
G--9---9---9-9-9-7---7---7---7---7-5---5---5-5-5-------------------|
D--9---9---9-9-9-7---7---7---7---7-5---5---5-5-5-4---4---4---4---4-|
A--7---7---7-7-7-5---5---5---5---5-3---3---3-3-3-4---4---4---4---4-|
E------------------------------------------------2---2---2---2---2-|


4X Rhy Fig 7 with guitar solo
 I know you're sick and alone
 Mothers and circles alike
 We can bleed together
 We can bleed together
 We can bleed together
 We can bleed together
Transcribed by Andrew Shepherd (bando@goliat.eik.bme.hu).
Related for Bleed Together tab
Bleed Together chords by Soundgarden