Guitaretab - guitar tabs
Song name
# A B C D E F G H I J K L M N O P Q R S T U V W X Y Z

Soundgarden - Uncovered tab

-------------------------------------------------------------------------------
                            Uncovered - Soundgarden
-------------------------------------------------------------------------------

Tabbed by: brian_s
Email: branimir.sremec@kc.t-com.hr


INTRO:
e---------------------------------------------------------------------|
B---------------------------------------------------------------------|
G---9---7/6------7---6/4------6---4/2------0h2--2-2p0-----------------|
D-----------------------------------------------------2---------------|
A---------------------------------------------------------------------|
E---------------------------------------------------------------------|

e---------------------------------------------------------------------|
B---------------------------------------------------------------------|
G---------------------------------------------------------------------|
D---------------------------------------------------------------------|
A---7---5/4------5---4/2------4---2/0---------------------------------|
E------------------------------------------3h5--5-55p3p0-------------|


E5 RIFF:
e-------------xxxxxx--------------------------------------------------|
B-------------xxxxxx--------------------------------------------------|
G-------------xxxxxx--------------------------------------------------|
D---2---2-------------------------------------------------------------|
A---2---2-------------------------------------------------------------|
E---0---0-------------------------------------------------------------|


VERSE:
e---------------------------------------------------------------------|
B---------------------------------------------------------------------|
G---------------------------------------------------------------------|
D---------------------------------------------------------------------|
A---4/5---5/7---7--7-------5h7p5p4---5--5-----------------------------|
E---------------------------------------------------------------------|
[ Tab from: http://www.guitaretab.com/s/soundgarden/90253.html ]
e---------------------------------------------------------------------|
B---------------------------------------------------------------------|
G---------------------------------------------------------------------|
D---------------------------------------------------------------------|
A---4h5p4p2---4--4--------4/5---5/7---7--7----------------------------|
E---------------------------------------------------------------------|


INTERLUDE:
e---------------------------------------------------------------------|
B---------------------------------------------------------------------|
G---------------------------------------------------------------------|
D---------------------------------------------------------------------|
A---7-------6---7---5-------5-6-7-------------------------------------|
E---------------------------------5-6-7-------------------------------|

e---------------------------------------------------------------------|
B---------------------------------------------------------------------|
G---------------------------------------------------------------------|
D---------------------------------------------------------------------|
A---7-------6---7---5-------5-6-7-------------------------------------|
E---------------------------------5-6-7-------------------------------|

e---------------------------------------------------------------------|
B---------------------------------------------------------------------|
G---------------------------------------------------------------------|
D---------------------------------------------------------------------|
A---7-------6---7---9-------12-11-10----------------------------------|
E------------------------------------12-11-10-------------------------|


e---------------------------------------------------------------------|
B---------------------------------------------------------------------|
G---------------------------------------------------------------------|
D---------------------------------------------------------------------|
A---7-------6---7---10------12-10-9-----------------------------------|
E------------------------------------10-11-12-------------------------|


SONG ORDER:
Intro
E5 riff        4x
Verse riff     6x
E5 riff        4x
Verse riff     4x
Intro part 2   2x
E5 riff        4x
Interlude
E5 akord       4x
Verse riff     4x
Intro part 2   2x
E5 riff       10x

| /  slide up
| h  hammer-on
| p  pull-off
| x  Mute note
Related for Uncovered tab