Soundshifter - Super Mario World Rock tab

-------------------------------------------------------------------------------
			Super Mario World Rock - Soundshifter
-------------------------------------------------------------------------------
Tabbed by: redslime
Email: osiel.6@gmail.com

Tuning: Standard EADGBe


Firstly I take no credit whatsoever for the song itself. The song was createtd by Alexx 
(Soundshifter).
You can find it here: http://www.newgrounds.com/audio/listen/83591

I merely noticed that I could not find a single tab for this song no matter where I 
so I decided to make my own.

INTRO

e|---10---6------0---------|
B|-------------6----6-8----|
G|-------------------------|
D|-------------------------|
A|-------------------------|
E|-------------------------|

BRIDGE #1

e|-----------------------------------------------------------|
B|-----------------------------------------------------------|
G|---55-55--77-77--55-55--77-77--55-55--77-77--55-55--7-6----|
D|---33-33--55-55--33-33--55-55--33-33--55-55--33-33--5-4----|
A|-----------------------------------------------------------|
E|-----------------------------------------------------------|

BRIDGE #2

e|----8-10-8-10-8----5-6p5-------|
B|---6--------------------8-6----|
G|-------------------------------|
D|-------------------------------|
A|-------------------------------|
E|-------------------------------|

CHORUS

e|---5----------------------------8-5-----------5-----------------------6p5--------|
B|------6------6-6---------6-6--------8------------6------6-6-------6------8p6-----|
G|----------55--------5-5------------------------------55--------55----------------|
D|---------------------------------------------------------------------------------|
A|---------------------------------------------------------------------------------|
E|---------------------------------------------------------------------------------|


e|-1/5----------------------------8-5-----------5-----------------------6p5--------|
B|------6------6-6---------6-6--------8------------6------6-6-------6------8p6-----|
G|----------55--------5-5------------------------------55--------55----------------|
D|---------------------------------------------------------------------------------|
A|---------------------------------------------------------------------------------|
E|---------------------------------------------------------------------------------|

VERSE #1

e|---5-----------5---------5----4-3-------5-----------5---------5----8-----|
B|------6-----------6b------6----------------6-----------6b------6---------|
G|---------5-----------------5------------------5-----------------5--------|
D|-------------------------------------------------------------------------|
A|-------------------------------------------------------------------------|
E|-------------------------------------------------------------------------|


e|---5-----------------5----------------8-10-8-10-8----5-6p5-------|
B|------6------6-6----6-6-----6------6----------------------8-6----|
G|----------55-----------5--5--------------------------------------|
D|-----------------------------------------------------------------|
A|-----------------------------------------------------------------|
E|-----------------------------------------------------------------|

VERSE #2

e|-------------------5p4p3------------3h4h5-----------------3h4h5-10-------5p4p3-----|
B|---6-5-4-3-6-3-6--3------6----3-6--3------------3-6-3-6--3-----------3-6------6----|
G|-----------------------------------------------------------------------------------|
D|-----------------------------------------------------------------------------------|
A|-----------------------------------------------------------------------------------|
E|-----------------------------------------------------------------------------------|


e|---5-----------------5----------------8-10-8-10-8----5-6p5-------|
B|------6------6-6----6-6-----6------6----------------------8-6----|
G|----------55-----------5--5--------------------------------------|
D|-----------------------------------------------------------------|
A|-----------------------------------------------------------------|
E|-----------------------------------------------------------------|

SOLO

e|7/13-13-13-13--13-13-13--13-13-13-13-13-13-13-13-13-13-13-13-13-13-13-13-13-13-13-13-13-13-13\7|
B|-----------------------------------------------------------------------------------------------|
G|-----------------------------------------------------------------------------------------------|
D|-----------------------------------------------------------------------------------------------|
A|-----------------------------------------------------------------------------------------------|
E|-----------------------------------------------------------------------------------------------|


e|-------------------------------------------------------------------------------|
B|-------------------------------------------------------------------------------|
G|--------------------------------------5-5--------------------------------------|
D|---3-3--7-7--8-8--9-9--7-7--6-6--5-5--5-5--3-3--7-7--8-8--9-9--10-10-----3b----|
A|---3-3--7-7--8-8--9-9--7-7--6-6--5-5--3-3--3-3--7-7--8-8--9-9--10-10-----3b----|
E|---1-1--5-5--6-6--7-7--5-5--4-4--3-3-------1-1--5-5--6-6--7-7---8--8-----1b----|

OUTRO

e|---5-----------------------6p5-------|
B|------6------6-6-------6------8p6----|
G|----------55--------55---------------|
D|-------------------------------------|
A|-------------------------------------|
E|-------------------------------------|


Order:

INTRO      x1
BRIDGE #1  x1
CHORUS     x1
VERSE  #1  x1
VERSE  #2  x1

BRIDGE #1  x1
CHORUS     x1
VERSE  #1  x1
VERSE  #2  x1
BRIDGE #1  x2
SOLO       x1

CHORUS     x1
VERSE  #1  x1
VERSE  #2  x1
BRIDGE #2  x3
OUTRO      x1

************************************

Simple enough.

| /   slide up
| \   slide down
| h   hammer-on
| p   pull-off
| ~   vibrato
| b   Bend

************************************
Tap to rate this tab
 
# A B C D E F G H I J K L M N O P Q R S T U V W X Y Z