Soundshifter - Super Mario World Rock tab

-----------------------------------------------------------------------------
                        Super Mario World Rock by Soundshifter
-----------------------------------------------------------------------------
Tabbed by: rudlavi[rudlavi_sam_ja@hotmail.com] :D

Song: http://www.newgrounds.com/audio/listen/83591

Tuning: Standard [E A D G B e]
Key: F major

INTRO:

e|10-----------------|
B|----11-------------|
G|-------10-9-10-12--|
D|-------------------|
A|-------------------|
E|-------------------|
*****************************************************************************

BRIDGE:

e|5-5-5-5--6-6-6-6--5-5-5-5--6-6-6-6--5-5-5-5--6-6-6-6--5-5-5-5--6--6--|
B|6-6-6-6--8-8-8-8--6-6-6-6--8-8-8-8--6-6-6-6--8-8-8-8--6-6-6-6--8--7--|
G|---------------------------------------------------------------------|
D|---------------------------------------------------------------------|
A|---------------------------------------------------------------------|
E|---------------------------------------------------------------------|
*****************************************************************************

CHORUS:

  F5  A5  A#5 B5  A5  G#5  G5  C5    F5  A5  A#5  B5  C5  E5     F5
e|5----------------------8---5-------5-------------------6p5---------| x2
B|----6-----6-6------6-6-------8---------6------6-6-----6------8--6--|
G|------5-7----7--5--------------(5)-------5-7------7-5--------------|
D|-------------------------------------------------------------------|
A|-------------------------------------------------------------------|
E|-------------------------------------------------------------------|

And the MysteryGuitarX shows up in the second repeat of the chorus:
e|8s13-13-13-13-13-13-13-13-13-13-13-13-13-13-13-13---------------13--|
B|---------------------------------------------------13-13-13-13------|
G|--------------------------------------------------------------------|
D|--------------------------------------------------------------------|
A|--------------------------------------------------------------------|
E|--------------------------------------------------------------------|
*****************************************************************************

VERSE(pt.1):

  F5              G5      C5     F5              G5      C5
e|5-------5--------4-----4-3-----5-------5--------4-----8--|
B|---6-------6-------6-------------6-------6-------6-------|
G|------5-------(5)----5-------------5-------(5)------5----|
D|---------------------------------------------------------|
A|---------------------------------------------------------|
E|---------------------------------------------------------|
 

VERSE(pt.2):

LEAD GUITAR:
e|5----------------5------------------8-10-8-10-8-----------------|
B|----6-----6-6--8----6------6-6-6-6------------------11-10-8-----|
G|------5--7------------5-7--6-6-6-6---------------10---------10--|
D|----------------------------------------------------------------|
A|----------------------------------------------------------------|
E|----------------------------------------------------------------|


RHYTHM GUITAR:
e|13-13-13-13-11-11-11-11-10-10-10-10-9-9-9-9--8-10-8-10-8-----------------|
B|13-13-13-13-11-11-11-11-10-10-10-10-9-9-9-9-----------------11-10-8--10--|
G|---------------------------------------------------------10--------------|
D|-------------------------------------------------------------------------|
A|-------------------------------------------------------------------------|
E|-------------------------------------------------------------------------|


VERSE(pt.3):

e|------------------------------------------------------8-10----------------|
B|---------------9-10-9-8-----------9-10--------8-9-10-----------10-9-8-----|
G|10-9-8--7-10-7---------10--7-10-7------7-10-7-------10-----7-10-------10--|
D|--------------------------------------------------------------------------|
A|--------------------------------------------------------------------------|
E|--------------------------------------------------------------------------|

REPEAT VERSE(pt.2)
*****************************************************************************

BRIDGE
*****************************************************************************

CHORUS
*****************************************************************************

VERSE
*****************************************************************************

BRIDGE X2
*****************************************************************************

SOLO:
  F5   A5  A #5  B5  A5  G#5  G5  C5    F5  A5  A#5  B5  C5  E5   F5
e|13-13-13-13-13-13-13-13-13-13-13-13-13-13-13-13-13-13-13-13-13-13s8--|x2
B|---------------------------------------------------------------------|
G|---------------------------------------------------------------------|
D|---------------------------------------------------------------------|
A|---------------------------------------------------------------------|
E|---------------------------------------------------------------------|
*****************************************************************************

CHORUS
*****************************************************************************

VERSE
*****************************************************************************

ENDING(pt.1):

LEAD GUITAR:
e|--8-10-8-10-8----------------|  
B|-----------------11-10-8-----|
G|10------------10---------10--|
D|-----------------------------|
A|-----------------------------|
E|-----------------------------|

RHYTHM GUITAR:
e|--8-10-8-10-8----------------|
B|-----------------11-10-8-10--|
G|10------------10-------------|
D|-----------------------------|
A|-----------------------------|
E|-----------------------------|

REPEAT ENDING(pt.1)x2


ENDING(pt.2)
  
  F5  A5  A#5  B5  C5  E5     F5
e|5-------------------6p5---------|
B|----6------6-6-----6------8--6--|
G|------5-7------7-5--------------|
D|--------------------------------|
A|--------------------------------|
E|--------------------------------|

MysteryGuitarX sneaks up in the end to take the credits:
e|13-13-13-13-13-13-13-13-13-13-13-13-13-13-13-13--|
B|-------------------------------------------------|
G|-------------------------------------------------|
D|-------------------------------------------------|
A|-------------------------------------------------|
E|-------------------------------------------------|
*****************************************************************************

Hope you enjoyed it!
Tap to rate this tab
 
# A B C D E F G H I J K L M N O P Q R S T U V W X Y Z