Song name
# A B C D E F G H I J K L M N O P Q R S T U V W X Y Z

Soundtrack Of Our Lives - Mind The Gap tab

/=slide up
p=pull of/on


E  -------------------------------------------------|
B  -------------------------------------------------|
G  --4/11--13p11---8p9--/11-----------12p11---------|
D  --------------------------9--9/12----------7p8---|
A  -------------------------------------------------|
E  -------------------------------------------------|


E  -------------------------------------------------|
B  -------------------------------------------------|
G  --4/11--13p11---8p9--/11-----------12p11---14p16-|
D  --------------------------9--9/12----------------|
A  -------------------------------------------------|
E  -------------------------------------------------|End

It isn't very difficult. You'll learning at no time at all!

Solo tab by Lukas Z
Tap to rate this tab
# A B C D E F G H I J K L M N O P Q R S T U V W X Y Z