Song name
# A B C D E F G H I J K L M N O P Q R S T U V W X Y Z

Soundtrack Of Our Lives - Homo Habilis Blues tab

The Homo Habilis Blues from the album "Welcome to the instant freebase"


E-----------------------------------------------------------------------|
B---------------------0-------------------------------------------------|
G---0---00---0-------0-------*2-----------------------------------------|
D---0---00---0------2---------------------------------------------------|
A------------------4----------------------------------------------------|
E--0--0-----0--0--------------------------------------------------------|


E-----------------------------------------------------------------------|
B-----3----2----3----5------3---2---3---2--------------------------0----|
G------0----0----0-----------0---0---0----------0----00---0-------0-----|
D-------2----2----2-----------2---2---2---------0----00---0------2------|
A-0----------------------0--------------------------------------4-------|
E---------------------------------------------0----0----0----0----------|
Tap to rate this tab
 
# A B C D E F G H I J K L M N O P Q R S T U V W X Y Z